Зробити стартовою  |  Додати в вибране
 
Пошук по сайту:  
  логін: пароль:  
    Реєстрація на сайті   Нагадати пароль?    

Видавництво Симфонія | Книжкова фабрика

akords.org » З » Земфира » Искала (3 варіант)
Знайти необхідні акорди

Земфира - Искала (3 варіант)  Табулатура

( Riff 1)
E|-------0------1----0-3-1-0h1-|
B|-----3------3----3-----------|
G|---2------2------------------| Intro:
D|-0---------------------------| 2
A|-----------------------------| раза
E|-----------------------------|

( Riff 2)
E|-------0------1----0-3-1-0-|
B|-----3------3-----3--------|
G|---2------2----------------|
D|-0-------------------------|
A|---------------------------|
E|---------------------------|

А в это время бас ведет такую тему:

( Riff 3)
D!--0--0------------- !
A!------3--2?-2------ ! 3 РАЗА
E!-------------5Р(3)- !
*
D!--0--0----------------!
A!------3--2?-2-0-------!
E!---------------3-1р0--!

Intro:

( Riff 4)
я искала тебя годами долгими
искала тебя дворами темными
в журналах в кино среди друзей
( Riff 5)
в день когда нашла с ума сошла

E|---!---!---!
B|---!---!-3-!
G|---!---!---! = G*
D|---!---!---!
A|---!-2-!---!
E|---!---!-3-!

E|---!---!-3-!
B|---!---!-3-!
G|---!---!---! = С
D|---!-2-!---!
A|---!---!-3-!
E|---!---!---!

( Riff 4)
Dm C G* A
E|---10------10-----10--------5-|
B|---10------10-----10--------5-|
G|---10------10-----10----------|
D|-0-----0----------------------|
A|------------------------------|
E|---------8------7------7--5---|

Но в акустической версии можно и так играть
E|---1------3-----0(3)----0-|
B|---3------3-----3-------2-|
G|---2------0-----0-------2-|
D|-0----0-------------------|
A|--------3-----2-----2-0---|
E|--------------------------|

( Riff 5)
Dm C G* A
E|---10------10-----10------------------------|
B|---10------10-----10------------------------|
G|---10------10-----10------------------------|
D|-0-----0----------------------7---7---7---7-|
A|------------------------------7---7---7---7-|
E|---------8------7------7--5---5---5---5---5-|

F5 A5 F5
ты совсем как во сне
A5 F5
совсем как в альбомах
A5 G5 A5
где я рисовала тебя гуашью

Второй куплет играется как и первый

дальше были звонки ночные больше
слезы нервы любовь и стрелки в Польше
не кино не мои старые зазнобы
куришь каждые пять - мы устали оба

ты совсем как во сне
совсем как в альбомах
где я рисовала тебя гуашью

( Riff 1)
годами долгими
( Riff 2)
ночами темными
( Riff 1)
годами долгими
( Riff 2)

(СОЛО:)
E|----------------------------------|
B|------------------------6-9-------|
G|-9-------------------7------7-8-7-|
D|----10-7-----5-7-5----------------|
A|---------8---------8--------------|
E|----------------------------------|

E|-----------------------------------------|
B|-----------------------------------------|
G|-9-------------------7-------------------|
D|----10-7-----5-7-5--------7-5------7-7-7-|
A|---------8---------8----8-----8----7-7-7-|
E|-----------------------------------5-5-5-|

ты совсем как во сне
совсем как в альбомах
где я рисовала тебя гуашью

( Riff 3)
я искала тебя годами долгими
( Riff 3)
искала тебя дворами темными
( Riff 4)
в журналах в кино годами долгими
искала тебя
( Riff 1)+ ( Riff 2) (и так до конца)

ночами
чами
чами
чами
чами
чами

-----------------------------
|  акорди, навчання, відео  |
|     http://akords.org     |
-----------------------------

 (голосів: 0)
   Інші пісні:
  • Искала (2 варіант)
  • Искала
  • Звуковое письмо
  • Звуковое письмо (2 варіант)
  • Lets Get It Started
  •  
    Шановний відвідувач, Ви зайшли на сайт як незареєстрований користувач. Ми рекомендуємо Вам реєструватися або зайти на сайт під своїм ім'ям.

    Додавання коментаря

    Ім'я:*
    E-Mail:*
    Коментар:
    Введіть два слова, показані на зображенні: *
     
      

    BLIBL-створити сайт безкоштовно