Зробити стартовою  |  Додати в вибране
 
Пошук по сайту:  
  логін: пароль:  
    Реєстрація на сайті   Нагадати пароль?    

Видавництво Симфонія | Книжкова фабрика

akords.org » З » Земфира » Zero
Знайти необхідні акорди

Земфира - Zero  Акорди

Проигрыш:
Am D fill1:
Ла-ла-ла-ла-ла-лай G|-------------|
D|--7---92-2--|
Am D
Делай со мной что хочешь
Стань моей тенью до завтра
Dm Em Dm7
Ломай мои пальцы, целуй мою кожу -1-
Dm7 G -1-
Как тянет расстаться но мы же похожи -2-
-0-
Припев: -x-
Dm Em Dm7 -x-
Ах в твоих же зрачечках страх
G F
И в них же чужаЯ боль
A
zero

fill2:
B|-----------------|
G|--/9--7----------|
D|--------9-7---7--|
A|------------9----|
E|-----------------|

[Проигрыш]

Думай но только ночью
Ты знаешь я исчезаю внезапно
Сорви мои чувства, храни как гербарий
На слабости мускул себя разбазарив

Припев:
Ах в твоих же зрачочках страх
И в них же чужая боль
zero
Zero

RytHm:
Am D [2 (раза)]

solo:

G|------------------------------------3--2--|
D|--------------------------2-3-5--2--------|
A|--5---3-5/7-5---3-5/7-5-------------------|
E|------------------------------------------|

[Припев:]

[fill2]

[Проигрыш]

-----------------------------
|  акорди, навчання, відео  |
|     http://akords.org     |
-----------------------------

 (голосів: 0)
   Інші пісні:
  • Zero (2 варіант)
  • Страх в твоих глазах
  • Dancez
  • Возьми мое сердце (2 варіант)
  • Розовые очки (2 варіант)
  •  
    Шановний відвідувач, Ви зайшли на сайт як незареєстрований користувач. Ми рекомендуємо Вам реєструватися або зайти на сайт під своїм ім'ям.

    Додавання коментаря

    Ім'я:*
    E-Mail:*
    Коментар:
    Введіть два слова, показані на зображенні: *
     
      

    BLIBL-створити сайт безкоштовно