Зробити стартовою  |  Додати в вибране
 
Пошук по сайту:  
  логін: пароль:  
    Реєстрація на сайті   Нагадати пароль?    

Видавництво Симфонія | Книжкова фабрика

akords.org » В » Воплі Відоплясова (ВВ) » Гармония
Знайти необхідні акорди

Воплі Відоплясова (ВВ) - Гармония  Акорди, табулатура

F7+         A*      F*
EADGHE EADGHE EADGHE
------ ------ ------
xx3210 x02200 xx3200

E|0--------0-----3-0-0-|
B|4/5------4/5---5-5-0-|
G|---------------------|
D|---------------------|
A|---------------------|
E|---------------------|

Am G C(або C7+) F6+ E
Am G C(або Am/C) F6+ D A*

Am G C F6+
За горами, за лісами
Em7 G6 A* A* Am
Ходить, блудить різний зміст.
Am G C F7+
Я дивлюсь телевізора,
Em G6 A* A* Am
В його хвилях втрача - ю - чись.

F9+ Em F* F* F7+
Оу, оу. Чи не ди - во?
F9+ Em Am A
Оу, оу. В темряві
F9+ E F* F* F9+
Оу, оу. Разгорта - ються
F7+ C G
Гармонії.

E|3-3-3-3-3-|
B|0-1-0-1-0-|
G|----------|
D|----------|
A|----------|
E|----------|

Am G C(або C7+) F7+

(другий куплет грається так само, як перший)

Великанами грізними
Ледве падає важкий сніг.
Як ціпками залізними,
Мозок путає думками.

Оу, оу. Не звідкіля
Оу, оу. Раптові
Оу, оу. Разгортаються
Гармонії.

E|0--------0-----3-0-0-|
B|4/5------4/5---5-5-0-|
G|---------------------|
D|---------------------|
A|---------------------|
E|---------------------|

Am G D F E Am G C F G E
E|---------------------------------------------1111(7 р.)-----|
B|---------------------------------000033331111----------3300-|
G|-------------------------11112222---------------------------|
D|-------0000----------3333-----------------------------------|
A|0002222----3333(4 р.)---------------------------------------|
E|------------------------------------------------------------|

Am G C(або C7+) F7+ E
Am G C(або Am/C) F7+ D A*

-----------------------------
|  акорди, навчання, відео  |
|     http://akords.org     |
-----------------------------

 (голосів: 0)
   Інші пісні:
  • Dammit Live
  • Skies On Fire
  • Wendy Clear
  • Go
  • Go
  •  
    Шановний відвідувач, Ви зайшли на сайт як незареєстрований користувач. Ми рекомендуємо Вам реєструватися або зайти на сайт під своїм ім'ям.

    Додавання коментаря

    Ім'я:*
    E-Mail:*
    Коментар:
    Введіть два слова, показані на зображенні: *
     
      

    BLIBL-створити сайт безкоштовно