Зробити стартовою  |  Додати в вибране
 
Пошук по сайту:  
  логін: пароль:  
    Реєстрація на сайті   Нагадати пароль?    

Видавництво Симфонія | Книжкова фабрика

akords.org » В » Вій » Очі відьми
Знайти необхідні акорди

Вій - Очі відьми  Акорди

Вступ (Мотив 1):
(автор підбору вступу - Smash)

E||--------------------|--------------------|
H||--3--5--6--5--3-----|--1--3--3-----3-----|
G||-----------------2--|-----------2-----2--|
D||--0-----------------|--0-----------------|

--------------------|--5-----5-----------|
--3--5--6--5--3-----|--3-----------3-----|
-----------------2--|-----2-----2-----2--|
--0-----------------|--------------------|

--5--6--8/----10-----|--5-----5-----------|
--------6------------|--3--------3-----3--|
--------7--7------7--|-----2--------2-----|
--0------------------|--------------------|

--3-----------------|--------------------||
-----6--5--3--1-----|--1/-3--3-----3-----||
-----------------2--|-----------2-----2--||
--0-----------------|--0-----------------||


Мотив 1: *
Dm
Очі відьми мов зорі, очі відьми мов зорі,
Її чорні очі, ніби роси прозорі.
Наче морок безодні, наче морок безодні,
Dm Gm Dm
Як той лід холодні, її очі бездонні.

Мотив 2.
A# Gm/E
Уночі осінній віє вітер,
A# Gm/E
На болоті сич старий кричить.
A Dm Gm Dm
А вранці на покоси вибігає боса
Gm Dm Gm/E Dm A Dm **
Та розпускає коси, росой змиває сльози з очей.

Програш (1 і 2 такти Вступу). (2)

Мотив 1.
Очі відьми мов зорі, очі відьми мов зорі,
Її гіркі сльози, ніби роси прозорі.
Серед хащі могила, серед хащі могила,
Там згубили люди, кого відьма любила.

Мотив 2.
Уночі осінній виє вітер,
На болоті сич старий кричить.
А вранці на покоси та вибігає боса,
Росою миє коси, до лісу квіти носить...

Програш (на тему Вступу). (2)

Мотив 2.
Уночі осінній віє вітер,
На болоті сич старий кричить.
А вранці на покоси вибігає боса
Та розпускає коси, росой змиває сльози з очей.

Програш...


---
Спрощено Мотив 1 можна зіграти
на таких акордах:

Dm
Очі відьми мов зорі, очі відьми мов зорі,
Dm Gm C Dm
Її чорні очі, ніби роси прозорі.
Dm
Наче морок безодні, наче морок безодні,
Dm Gm C Dm
Як той лід холодні, її очі бездонні.

-----------------------------
|  акорди, навчання, відео  |
|     http://akords.org     |
-----------------------------

 (голосів: 3)
   Інші пісні:
  • В полі
  • Три хвилини
  • Із янголом на плечі
  • Із янголом на плечі
  • Хай не буде тобі сумно
  •  
    Шановний відвідувач, Ви зайшли на сайт як незареєстрований користувач. Ми рекомендуємо Вам реєструватися або зайти на сайт під своїм ім'ям.

    Додавання коментаря

    Ім'я:*
    E-Mail:*
    Коментар:
    Введіть два слова, показані на зображенні: *
     
      

    BLIBL-створити сайт безкоштовно