|  
 
:  
  : :  
      ?    

  |

akords.org » » » (3 )

- (3 ) 

HmEmA
E|---------------2-----|------3-2-3-7---------5-5-----|
B|--2------2-3-2---2---|---------------5-5-5--7-7--7--|
G|----4--4-----------4-|----4----------6-6-6-------7--|
D|---------------------|------------------------------|
A|---------------------|------------------------------|
E|---------------------|------------------------------|
HmEmA
E|---------------2-----|---------2-|-0-0-|---3-2-3-7---------5-5----|
B|--2------2-3-2---2---|---2-3-2---|-0-0-|------------5-5-5--7-7--7-|
G|----4--4-----------4-|-4---------|-----|-4----------6-6-6-------7-|
D|---------------------|-----------|-----|--------------------------|
A|---------------------|-----------|-----|--------------------------|
E|---------------------|-----------|-----|--------------------------|

Hm
,,
AHm
.
Hm
,.
GAEmF#
,

HmGEm

F#Hm
ߠ.
EmF#
.

ߠ.
ߠ...

,.
Ѡ.
,.
,



ߠ.


ߠ.
ߠ...

-----------------------------
|  , ,   |
|     http://akords.org     |
-----------------------------

 (: 0)
    :
  • (2 )
  • (2 )
  • ,
  • ,
  •  
    , . '.

    ':*
    E-Mail:*
    :
    , : *
     
      

    BLIBL-