|  
 
:  
  : :  
      ?    

  |

akords.org » » » (2 )

- (2 ) 

CmFmGm
E|-------------|---------|---------|-------------|-------------|
B|-----------4-|---------|-------4-|-------------|-------------|
G|--------5----|-------5-|----5----|-----------1-|-----------3-|
D|-----5-------|----5----|---------|--------3----|--------5----|
A|--3----------|-3-------|-3-------|-----3-------|-----5-------|
E|-------------|---------|---------|--1----------|--3----------|
:1-.
CmCmCmFmGm
E|--3-|---------|---------|---------|---------|
B|--4-|--4-3----|--4-3----|--4-3----|--4-3----|
G|--5-|---------|-------1-|-------1-|-------3-|
D|--5-|-------5-|---------|---------|---------|
A|--3-|---------|---------|---------|---------|
E|--X-|---------|---------|---------|---------|
CmCmFmGm
E|-----------|-----------|-----------|-----------|
B|--4-3-4----|--3-4-3----|--4-3-4----|--3/6--4-3-|
G|-----------|---------1-|---------1-|-----------|
D|---------5-|-----------|-----------|-----------|
A|-----------|-----------|-----------|-----------|
E|-----------|-----------|-----------|-----------|

...-
...1-
?
?
...
?
...
?
?
-.
---------------------------------------------------------------
Cm
-,
FmA#6
-\"\",-\"\".
Cm
?,
FmGm
-?
Cm
,:
FmA#6
\",...\"
Cm
,,,
FmGm
ߠ,!

:Distortione().
CmG#G#(,
,,,,,蠠E|--4-----|G#,
G#CmB|--4-----|)
!G|--4-5---|
CmG#D|--4---6-|
,,,,A|--4---6-|
G#CmE|--4-----|
,!

:
CmFmA#6
E|--------------3-|-------------3-|--4-4-4-4-4----|----------1-3---|
B|--4-4-4-4--6----|-4-4-4-4--6----|-------------1-|-3-3-3-4--------|
G|----------------|---------------|---------------|----------------|
D|----------------|---------------|---------------|----------------|
A|--3---3----3----|-3---3----3----|---------------|-1---1----1-----|
E|----------------|---------------|--1---1---1----|----------------|
CmFmGm
E|--------------3-|-------------3-|--4-4-4-4-4----|-------------3--|
B|--4-4-4-3--6----|-4-4-4-3--6----|-------------1-|--3-3-3-4-6-----|
G|----------------|---------------|---------------|----------------|
D|----------------|---------------|---------------|----------------|
A|--3---3----3----|-3---3----3----|---------------|----------------|
E|----------------|---------------|--1---1---1----|--3---3---3-----|
Cm
,
FmA#6
?
Cm
,,
FmGm
,,...
Cm
,,,:
FmA#6
\",\".
Cm
,,,
FmGm
ߠ,!
:
:
Cm
E|-------------|
B|-------------|
G|-------------|
D|----5---5----|
A|--3---3---3--|
E|-------------|

-----------------------------
|  , ,   |
|     http://akords.org     |
-----------------------------

 (: 0)
    :
  • 100
  •  
    , . '.

    ':*
    E-Mail:*
    :
    , : *
     
      

    BLIBL-