Зробити стартовою  |  Додати в вибране
 
Пошук по сайту:  
  логін: пароль:  
    Реєстрація на сайті   Нагадати пароль?    

Видавництво Симфонія | Книжкова фабрика

akords.org » Т » Тату » Я сошла с ума (2 варіант)
Знайти необхідні акорди

Тату - Я сошла с ума (2 варіант)  табулатура

tune E-B-G-D-A-D
припев
distortion
|---------------|
|---------------|
|---------------|
|--10--9--2--5--|
|--10--9--2--5--|
|--10--9--2--5--|
проигрыш
|----------3---------------2---------------3---------------2-------|
|------5-------5-------3-------3-------5-------5-------3-------3---|
|----5---5---5---5---2---2---2---2---4---4---4---4---4---4---4---4-|
|----------------------------------2---------------0---------------|
|--3---------------2-----------------------------------------------|
|------------------------------------------------------------------|
|--3--2--3--2--|
|--5--3--5--3--|
|--5--2--4--4--|  аккорды проигрыша
|--------2--0--|
|--3--2--------|
|--------------|
точнее будет звучать если играть на пол тона выше (можно поставить на
первый лад каподастер)

-----------------------------
|  акорди, навчання, відео  |
|     http://akords.org     |
-----------------------------

 (голосів: 0)
   Інші пісні:
  • Я сошла с ума
  • Обратите Внимание
  • Беспечный ангел (2 варіант)
  • Коронована луной (2 варіант)
  • Маньяки (4 варіант)
  •  
    Шановний відвідувач, Ви зайшли на сайт як незареєстрований користувач. Ми рекомендуємо Вам реєструватися або зайти на сайт під своїм ім'ям.

    Додавання коментаря

    Ім'я:*
    E-Mail:*
    Коментар:
    Введіть два слова, показані на зображенні: *
     
      

    BLIBL-створити сайт безкоштовно