|  
 
:  
  : :  
      ?    

  |

akords.org » » »

-  

G#G
ߠ,
CmG#
,

ߠ,
,

G#GCmG#
ߠ-Ѡ-

:
FG
,
.
help.
SOS.

GG#
ߠ

CmC#m
,?
H

:


ߠ-

H



-
-

:

ߠ,
,
ߠ,
,

ߠ-Ѡ-
HŠH-H-H()

[:g,g#,a#]




G|--------------------1--
D|------3-----5-----3----
A|----3-----5-----3------
E|--1-----3-----1--------

,


G|--------------------3--
D|------5-----6-----5----
A|----5-----6-----5------
E|--3-----4-----3--------

:

G#


Cm

H

FGFG
ߠ
ߠ
GG#GG#
,..
CmC#mCmC#m
,-..

ߠ,
,
ߠ,
,

,
-
ߠ--
,
-
ߠ--

:
G#GCmG#

ߠ,
,
ߠ,
,

ߠ,
ߠ,..

-----------------------------
|  , ,   |
|     http://akords.org     |
-----------------------------

 (: 0)
    :
  • (2 )
  • (2 )
  •  
    , . '.

    ':*
    E-Mail:*
    :
    , : *
     
      

    BLIBL-