|  
 
:  
  : :  
      ?    

  |

akords.org » » » (2 )

- (2 ) 


1)|---------------0--2--0----------------------------------------0----------0--|
2)|-----------0--------------0--3--1-------3--1-----------0----------0--------|
3)|-------0------------------------------------------------0--------------------|
4)|------------------------------------------------------------------------------|
5)|----------------------------------------0-----------0-------------2----------|
6)|----0-------------------------------------------------------------------------|


ߠ.
ߠ,.
,᳠.
,.
,ຠ,.
,.
,,
Ǡ࠳.

SMS–
ຠ.
,
\\\',.
SMS–볠
볠.
,,,
\\\'.

ߠ᳠,...
,–,!
,,
⠳,.
ߠ––
,,,,볠...
,:
\\\"–ຠ!\\\"...

SMS–
ຠ.
,
\\\',.
SMS–볠
볠.
,,,
\\\'.

-----------------------------
|  , ,   |
|     http://akords.org     |
-----------------------------

 (: 0)
    :
  • (2 )
  •  
    , . '.

    ':*
    E-Mail:*
    :
    , : *
     
      

    BLIBL-