Зробити стартовою  |  Додати в вибране
 
Пошук по сайту:  
  логін: пароль:  
    Реєстрація на сайті   Нагадати пароль?    

Видавництво Симфонія | Книжкова фабрика

akords.org » Т » Тартак » Стільникове кохання
Знайти необхідні акорди

Тартак - Стільникове кохання  табулатура

Я відчуваю близьку необхідність внутрішнього оновлення.
Я дістаю свого маленького друга, створюю нове повідомлення.
Напишу ті слова, що тобі не казав на наших з тобою побаченнях.
Напишу ті слова, що зараз для мене мають найбільше значення.
Про те, що ламає мене на шматки та складає, неначе мозаїку.
Про те, що кладе поетичні рядки під розкисле перо прозаїка.
Щоб ти знала й про те, як у серці мете нестерпно гаряча хурделиця,
З тіла рветься душа і по вістрю ножа нескінченною стрічкою стелиться.

Напишу SMS – це технічний прогрес
Дає мені шанс на майбутнє.
Зведений в культ, цей малесенький пульт
З'єднує з тим, хто відсутній.
Напишу SMS – від землі до небес
І з небес до землі пронесеться.
А коли долетить, хай, принаймні, на мить
Твоє серце частіше заб'ється.

Я раніше про це тобі не говорив, бо якось не випадало можливості...
Але ні, ти не вір – я цього не робив, бо просто не вистачало сміливості!
Безліч раз підбирав необхідні слова, щоб сказати при першій нагоді,
Та в останній момент всі слова забував і червонів, наче спійманий злодій.
Я щоночі не сплю – від потоку думок ніяк не вдається заснути –
І кручусь, і верчусь, і гарчу, наче вовк, ланцюгом до неволі прикутий...
Але прикро, що ти здатна відповісти лиш відвертим незадоволенням:
"Вибач мене за тон – тільки мій телефон не читає твої повідомлення!"...

Напишу SMS – це технічний прогрес
Дає мені шанс на майбутнє.
Зведений в культ, цей малесенький пульт
З'єднує з тим, хто відсутній.
Напишу SMS – від землі до небес
І з небес до землі пронесеться.
А коли долетить, хай, принаймні, на мить
Твоє серце частіше заб'ється.

--------------------------------------------------------------------
Табулатура від "CRASH" (sk8er_boi@pisem.net):

Цей риф повторюється упродовж усієї пісні:

E||-----------------------|--------------|----------------|
B||--------------7--5-----|--------3--1--|--------0-------|
G||--------0-----------0--|-----0--------|-----0-----2----|
D||-----0-----0-----------|--2-----------|--0-------------|
A||--7--------------------|--------------|----------------|
E||-----------------------|--------------|----------------|

--------------------||
-----------------3--||
--------4-----2-----||
-----0-----2--------||
--3-----------------||
--------------------||


----------------------------------------------------------
Табулатура від "Midnighter":

|---------------------|-----------|----------|---------------|
|-----------7---5---0-|-----3-1---|-----3-1--|-------------4-|
|-----0---------------|---0-------|---0------|------2--------|
|---5---5-------------|-2---------|----------|----2------4---|
|-7-------7---7---7---|-----------|-3--------|--0------2-----|
|---------------------|-----------|----------|---------------|

-----------------------------
|  акорди, навчання, відео  |
|     http://akords.org     |
-----------------------------

 (голосів: 0)
   Інші пісні:
  • Стільникове кохання (2 варіант)
  • Адам і Єва
  • Забытые ботинки (2 варіант)
  • Момент
  • Шмата
  •  
    Шановний відвідувач, Ви зайшли на сайт як незареєстрований користувач. Ми рекомендуємо Вам реєструватися або зайти на сайт під своїм ім'ям.

    Додавання коментаря

    Ім'я:*
    E-Mail:*
    Коментар:
    Введіть два слова, показані на зображенні: *
     
      

    BLIBL-створити сайт безкоштовно