Зробити стартовою  |  Додати в вибране
 
Пошук по сайту:  
  логін: пароль:  
    Реєстрація на сайті   Нагадати пароль?    

Видавництво Симфонія | Книжкова фабрика

akords.org » Т » Тараканы » Прочь из этих мест (2 варіант)
Знайти необхідні акорди

Тараканы - Прочь из этих мест (2 варіант)  табулатура

Соло:
1|(Hm)--(G)--(E)---(G)--(Hm)--(G)--(E)-(G)|
2|----------------------------------------|
3|---------------------------------4-2--3-|
4|-----4-5-4-0-2----5--------4-5-4--------|
5|-2-5-------------------2-5--------------|
6|----------------------------------------|

1|(Hm)--(G)--(E)---(G)--(Hm)--(G)--(E)-(G)|
2|----------------------------------------|
3|-----------------------------------5-5--|
4|-----4-5-4-0-2----5------------2-2------|
5|-2-5-------------------2-2-5-5----------|
6|----------------------------------------|

Hm G E G
Ты знаешь, я почти привык к плохим теленовостям
С недавних пор мне все равно, о чем еще расскажут нам.
Я просто децл подустал, но может кто-нибудь меня винить?
Все что я хотел сказать - сказал и уже успел забыть.

Припев(2раза):
Hm G A D
Я хочу валить
Hm G A D
В те края, где можно жить
Hm G A D
Я хочу свалить
Hm G D
прочь из этих мест

Скажи, зачем мы здесь и как нас занесло
В столь неуютные места, где не тепло и не светло?
Зачем я буду врать тебе, скажу
Здесь просто нету мест для нас
Так было раньше, будет позже
И только так сейчас.

Припев(2раза):

Соло: Hm G D A - 2 раза

Hm G D Hm
1|----------------------------------------------------------|
2|----------------------------------------------------------|
3|-9b(11)---9b(11)------------9b(11)(11)(11)(9)-9-9b(11)----|
4|-------------------------------------------------------9-9|
5|----------------------------------------------------------|
6|----------------------------------------------------------|

Hm G D Hm
1|----------------------------------------------------------|
2|----------------------------------------------------------|
3|----------------------------------------------------------|
4|-9--9--7---------7-------7--------------------------------|
5|---------9----------9-------9------7--7b(9)-7-------------|
6|-------------------------------10-------------------------|

Припев(с эхом):

-----------------------------
|  акорди, навчання, відео  |
|     http://akords.org     |
-----------------------------

 (голосів: 0)
   Інші пісні:
  • Прочь из этих мест
  • В формалине
  • 5 минут до дома твоего дома
  • Бедняжка
  • Я тебя люблю
  •  
    Шановний відвідувач, Ви зайшли на сайт як незареєстрований користувач. Ми рекомендуємо Вам реєструватися або зайти на сайт під своїм ім'ям.

    Додавання коментаря

    Ім'я:*
    E-Mail:*
    Коментар:
    Введіть два слова, показані на зображенні: *
     
      

    BLIBL-створити сайт безкоштовно