Зробити стартовою  |  Додати в вибране
 
Пошук по сайту:  
  логін: пароль:  
    Реєстрація на сайті   Нагадати пароль?    

Видавництво Симфонія | Книжкова фабрика

akords.org » Т » Тараканы » Не везет
Знайти необхідні акорди

Тараканы - Не везет  табулатура

Вступление:
A5 E5 F#5 E5 D5 E5
E||---------------------------------------------------------|
B||---------------------------------------------------------|
G||---------------------------------7-7-7-7-7-7-7-7-9-9-9-9-|
D||-7-7-7-7-2-2-2-2-4-4-4-4-2-2-2-2-7-7-7-7-7-7-7-7-9-9-9-9-|
A||-7-7-7-7-2-2-2-2-4-4-4-4-2-2-2-2-5-5-5-5-5-5-5-5-7-7-7-7-|
E||-5-5-5-7-0-0-0-0-2-2-2-2-0-0-0-0-------------------------|

D5 F#5 E5
E||---------------------------------|
B||---------------------------------|
G||-7-7-7-7-7-7-7-7-----------------|
D||-7-7-7-7-7-7-7-7-4-4-4-4-2-2-2-2-|
A||-5-5-5-5-5-5-5-5-4-4-4-4-2-2-2-2-|
E||-----------------2-2-2-2-0-0-0-0-|

A5 F#5 E5
Я неделю не пил алкогольные напитки,
A5 F#5 E5
Целый день дождь со снегом идет - я промок до нитки
A5 E5
На НАИВ в R-клуб не попал - не нашел себя в списках
D5 E5
Хотел тусовать-залипать - обломались все вписки

A5 E5 D5 E5
У-У-У-У-А-А-А-А

Припев:
A5 E5 F#5 E5
Мне сегодня не везет - наверно просто день не тот.
A5 E5 F#5 E5
Мне сегодня не везет - не вставляет и не прет.
A5 E5 F#5 E5
Мне сегодня не везет - наверно просто день не тот
A5 E5 F#5 E5
Мне сегодня не везет - не цепляет, не берет.


Я был бы рад ей назначить свиданье
Но от куртки косой осталось лишь одно названье
К тому же измена базарить потом с ее чуваком как пацан с пацаном
С ее чуваком как пацан с пацаном.
У-У-У-У-А-А-А-А

-----------------------------
|  акорди, навчання, відео  |
|     http://akords.org     |
-----------------------------

 (голосів: 0)
   Інші пісні:
  • Песенка про меня
  • Песня Верещагина
  • Великая Железнодорожная Симфония
  • Сегодня и завтра
  • И он сам
  •  
    Шановний відвідувач, Ви зайшли на сайт як незареєстрований користувач. Ми рекомендуємо Вам реєструватися або зайти на сайт під своїм ім'ям.

    Додавання коментаря

    Ім'я:*
    E-Mail:*
    Коментар:
    Введіть два слова, показані на зображенні: *
     
      

    BLIBL-створити сайт безкоштовно