Зробити стартовою  |  Додати в вибране
 
Пошук по сайту:  
  логін: пароль:  
    Реєстрація на сайті   Нагадати пароль?    

Видавництво Симфонія | Книжкова фабрика

akords.org » Т » Тараканы » Как в 3-й Quake (2 варіант)
Знайти необхідні акорди

Тараканы - Как в 3-й Quake (2 варіант)  акорди

intro: D-G-A x 4
D A
Вот было бы ништяк на десять лет назад,
D A
Перенестить,попасть на старт и заново начать.
G A G A
Но с мудаками не дружить,и в тупики не заходить.
G A
Все зная наперед идти и не мандить.

Вот был бы кайф , когда я зная все и вся,
что есть,что будет,кто пацан ,а кто как я.
Где жестко-подстелил,где дешево-купил,
туда где страшно и опасно –вовсе не ходил б.

Chorus:

D
Я словно в 3-ий QUAKE играя
A
Дверь за дверью открываю.
Hm(7) A G
Оружие ,здоровье и патроны нахожу.
D
Врагов по ходу истребляя
A Hm(7) A G
миссию я выполняю,уровень за уровнем не сохраняясь прохожу.

Sollo:

E|---------------------------------|
B|-7-6---7-6-----------------------|
G|-----7-----7~~-------------------|
D|---------------------------------|
A|---------------5-4-5-4-5-4-5-4-7-|
E|---------------------------------|

E|---------------------------------|
B|-7-6----7-6----------------------|
G|-----7p-----7p-9-9-9-9-9-9-6---9-|
D|-----------------------------7---|
A|---------------------------------|
E|---------------------------------|

Chorus:

outro: A-G-A-G-D

Все аккорды играются на баре квинтами. ( Hm(7)-,баре на 7 ладу)

-----------------------------
|  акорди, навчання, відео  |
|     http://akords.org     |
-----------------------------

 (голосів: 0)
   Інші пісні:
  • Как в 3-й Quake
  • Волки (2 варіант)
  • Мяу Кисс Ми
  • Десять Прекрасных Дам
  • Вино на пиво
  •  
    Шановний відвідувач, Ви зайшли на сайт як незареєстрований користувач. Ми рекомендуємо Вам реєструватися або зайти на сайт під своїм ім'ям.

    Додавання коментаря

    Ім'я:*
    E-Mail:*
    Коментар:
    Введіть два слова, показані на зображенні: *
     
      

    BLIBL-створити сайт безкоштовно