Зробити стартовою  |  Додати в вибране
 
Пошук по сайту:  
  логін: пароль:  
    Реєстрація на сайті   Нагадати пароль?    

Видавництво Симфонія | Книжкова фабрика

akords.org » Т » Танок на майдані Конго » Арешт (2 варіант)
Знайти необхідні акорди

Танок на майдані Конго - Арешт (2 варіант)  табулатура

 Ам                  Am                 Am            C     BЬ 

---------------------------------------------------------------------------
-----1------3----------1--------3------1-------3------1-------3------------
---2---2-24---------2----2--24-------2---2-24-------0---0------------------
---------------------------------------------------------------------------
-0---------------0-----------------0--------------3--------1---------------
---------------------------------------------------------------------------
Потім знову Тут я непевний
---------------------------------------------------------------------------
------1--------3------1-------3------1--------3-----------1------3---------
----2---2--24-------2---2--24------2---2--24-----4------0---0------3-------
---------------------------------------------------4-----------------3-----
--0---------------0--------------0--------------------3-------1------------
---------------------------------------------------------------------------


Ти уяви собі – падає Боінг
Людей кида сила ваги
Як погані бі-бої вони падають вниз
Найпоганіша криза із усіх криз.
Я у салоні і саме в цей час
Хтось на небі надав мені шанс
І я зустрів її врешті- решт
Але все це змінив мій арешт

Приспів:
Я бачу сни. Я бачу сни
Ти до мене не ходи, не дзвони
Коли я бачу сни, коли я бачу сни

Поки наш літак падав униз
Я пригадав, що читав десь колись
Що у кожній тварі має буть хтось
В собаки – собака, в Юнони – Авось
У моря – річка, у дома - тин,
У Петра Марічка, все з двох половин
Ми - два береги, Буда та Пешт
Все було б добре, якби не арешт

Приспів.

Що було потім, розповім в двох словах
Вирішив я припинити цей жах
Її взяв на руки, крила розкрив
Я покинув літак і на землю злетів
Сяяло сонце, я сів на траву
В її очі я зазирнув
І зрозумів, що нема в світі меж
Але все зіпсував мій арешт

Приспів.

Ось любов, так любов, я долоні простер
Але поруч з'явився гелікоптер
Суворі люди, пси, автомати
Сказали, що право я маю мовчати
Оце так ламбада, засада така
Але я був винен, я пілот літака
Вона не встагла сказати – "І я тебе теж", -
Ось так і відбувся мій арешт

Приспів.

P.S.
Вийде сонце, виведе з омани
Але ранок не лікує рани
Спи не спи, журися не журися
Не зустрілися, то хоча б наснися

Приспів.

P.P.S.
Коли сон минає, ви часу не гайте
Прокидайтесь, але пам'ятайте
Що, все може бути. На цьому бувайте
Я все це вигадав. Вибачайте

-----------------------------
|  акорди, навчання, відео  |
|     http://akords.org     |
-----------------------------

 (голосів: 1)
   Інші пісні:
  • Арешт
  • Мені подобається як ти ідеш
  • Забытые ботинки (2 варіант)
  • Василиха
  • Василиха
  •  
    Шановний відвідувач, Ви зайшли на сайт як незареєстрований користувач. Ми рекомендуємо Вам реєструватися або зайти на сайт під своїм ім'ям.

    Додавання коментаря

    Ім'я:*
    E-Mail:*
    Коментар:
    Введіть два слова, показані на зображенні: *
     
      

    BLIBL-створити сайт безкоштовно