Зробити стартовою  |  Додати в вибране
 
Пошук по сайту:  
  логін: пароль:  
    Реєстрація на сайті   Нагадати пароль?    

Видавництво Симфонія | Книжкова фабрика

akords.org » Т » Танцы Минус » Зима
Знайти необхідні акорди

Танцы Минус - Зима  табулатура

Solo (играют в начале песни и после каждого припева):
E|-------------------8--7-5--------------5-------------|
H|-8--7-5---8--7-5-----------5-8-7-5-7-7---------------|

Иногда еще после припева играют нечто такое:
E|--7--5--7-5--7--5--7-5--7--5--7-5--7--5--7-5--|

E|------------------2-----2-----2---|
H|-0-----0-----0------3-----3-----3-|
G|---0-----0-----0------2-----2-----|
D|-----2-----2----------------------|
A|----------------------------------|
E|----------------------------------|

E|------------------2-----3-----2---|
H|-1-----1-----1------3-----3-----3-|
G|---0-----0-----0------2-----2-----|
D|-----2-----2----------------------|
A|----------------------------------|
E|----------------------------------|

Em D
Неизбежные, тучи снежные
C D
Нависают над нашим городом
Все попрятались двери на замках
Окна черные дышат холодом
Разноцветные звезды звездочки
Постучались к нам в наши форточки
Заструился дым, побежали дни
Ты не веришь, мне я не верю им

Припев:
Em C Am D
Тише воды, ниже воды
Em C Am
Среди звенящей пустоты
D Em C Am
Не видя снов и красоты
D
Зимуем Мы

Безответные, письма с ветрами
Не заметные дни с вечерами
Перепутались, переплелись
Поднимаясь вверх, опустились вниз

Разноцветные звезды звездочки
Постучались к нам в наши форточки
Заструился дым, побежали дни
Ты не веришь, мне я не верю им

-----------------------------
|  акорди, навчання, відео  |
|     http://akords.org     |
-----------------------------

 (голосів: 0)
   Інші пісні:
  • Светлый ангел
  • Я не верю
  • Сосны на морском берегу (2 варіант)
  • Бомбы
  • Зима.
  •  
    Шановний відвідувач, Ви зайшли на сайт як незареєстрований користувач. Ми рекомендуємо Вам реєструватися або зайти на сайт під своїм ім'ям.

    Додавання коментаря

    Ім'я:*
    E-Mail:*
    Коментар:
    Введіть два слова, показані на зображенні: *
     
      

    BLIBL-створити сайт безкоштовно