Зробити стартовою  |  Додати в вибране
 
Пошук по сайту:  
  логін: пароль:  
    Реєстрація на сайті   Нагадати пароль?    

Видавництво Симфонія | Книжкова фабрика

akords.org » Т » Танцы Минус » Город
Знайти необхідні акорди

Танцы Минус - Город  табулатура

E|-----------------------------------|
B|-----------------------10-8-10-8---|
G|9-10-7-----7--9-10-9-7-----------9-|
D|-------7--7------------------------|
A|-----------------------------------|
E|-----------------------------------|

E|-------------------------------------|
B|---------------------10-8-10-8-11-10-|
G|9-10-7---7-9-10-9-7------------------|
D|------7-7----------------------------|
A|-------------------------------------|
E|-------------------------------------|

E|12-10-----12-10-12-10--------------|
B|-------10---------------10-8--10-8-|
G|-----------------------------------|
D|-----------------------------------|
A|-----------------------------------|
E|-----------------------------------|

E|------------------------------------|
B|-------10--8------------------------|
G|--7-10-------9-10--12--9-10-12-9-10-|
D|7-----------------------------------|
A|------------------------------------|
E|------------------------------------|

E|------------------|
B|-------8-------10-|
G|-----7----7----9--|
D|--8--------8------|
A|------------------|
E|------------------|

Dm B
Я шагаю по проспекту,
Gm A
По ночному городу.
Я иду потому, что у меня есть ноги,
Я умею ходить и поэтому иду.
Иду навстречу цветным витринам.
Мимо пролетают дорогие лимузины.
В них женщины проносятся с горящими глазами,
Холодными сердцами, золотыми волосами.

Gm A
Город - сказка, город - мечта.
Dm B
Попадая в его сети, пропадаешь навсегда,
Глотая воздух и простуду сквозняков
Gm A
С запахом бензина и дорогих духов.

Звезд на небе мало, но это не беда,
Здесь почти что в каждом доме есть своя и не одна.
Электричество, газ, телефон, водопровод,
Коммунальный рай без хлопот и забот.

Город - сказка, город - мечта.
Попадая в его сети, пропадаешь навсегда,
Глотая воздух и простуду сквозняков
С запахом бензина и дорогих духов.

Дым высоких труб, бег седых облаков
Нам укажет приближение холодных ветров.
Танец солнечных лучей в паутине проводов
Над жестяными крышами обшарпанных домов.
Иду навстречу цветным витринам.
Мимо пролетают дорогие лимузины.
В них женщины проносятся с горящими глазами,
Холодными сердцами, золотыми волосами.

Город - сказка, город - мечта.
Попадая в его сети, пропадаешь навсегда,
Глотая воздух и простуду сквозняков
С запахом бензина и дорогих духов.

Guitar solo:
E|------------------------------------------------------------|
B|--------------------10-8-10-8-----------------------10-8-10-|
G|9-10-7---7-9-10-9-7-----------9-10-7---7-9-9-10-9-7---------|
D|-------7-----------------------------7----------------------|
A|------------------------------------------------------------|
E|------------------------------------------------------------|

E|--------12-10----12-10-12-10-------------------------------|
B|-8-11-10------11-------------10-8-10-8---------------------|
G|------------------------------------------9-10-12-10----10-|
D|---------------------------------------10------------12----|
A|-----------------------------------------------------------|
E|-----------------------------------------------------------|

E|----------------|
B|8-------8-------|
G|-----10------10-|
D|--12------12----|
A|----------------|
E|----------------|

E|--------------------|
B|-----------------10-|
G|----------12-10-----|
D|------10------------|
A|--12----------------|
E|--------------------|

-----------------------------
|  акорди, навчання, відео  |
|     http://akords.org     |
-----------------------------

 (голосів: 0)
   Інші пісні:
  • Город (2 варіант)
  • Город негодяев
  • Петербург city
  • Добрый вечер, Москва!
  • Хрустальный город
  •  
    Шановний відвідувач, Ви зайшли на сайт як незареєстрований користувач. Ми рекомендуємо Вам реєструватися або зайти на сайт під своїм ім'ям.

    Додавання коментаря

    Ім'я:*
    E-Mail:*
    Коментар:
    Введіть два слова, показані на зображенні: *
     
      

    BLIBL-створити сайт безкоштовно