Зробити стартовою  |  Додати в вибране
 
Пошук по сайту:  
  логін: пароль:  
    Реєстрація на сайті   Нагадати пароль?    

Видавництво Симфонія | Книжкова фабрика

akords.org » С » Сплин » Бог устал нас любить
Знайти необхідні акорди

Сплин - Бог устал нас любить  табулатура

E|-------------------------------------------------------------|
B|-------1---------------1------------0------0---------0-------|
G|-----2-----2---------2---2--------0---0-------0----------0---|
D|---2---------2-----0-------0----0-------0--------0---------0-|
A|-0-----------------------------------------------------------|
E|----------------2-------------3------------------------------|

Intro: Am Am/D G6
Am Am/D G6
Мы чересчур увеличили дозу
Вспомнили все, что хотели забыть
Или на рельсы легли слишком поздно
G6 Am
Бог устал нас любить
G6 Am
Бог устал нас любить
Am/D G6
Бог просто устал нас любить
Am/D G6
Бог просто устал

Вот она, гильза от пули навылет
Карта, которую нечем покрыть
Мы остаемся одни в этом мире
Бог устал нас любить
Бог устал нас любить
Бог просто устал нас любить
Бог просто устал

Я рассказал бы тебе все, что знаю
Только об этом нельзя говорить
Выпавший снег никогда не растает
Бог устал нас любить
Бог устал нас любить
Бог просто устал нас любить
Бог просто устал

-----------------------------
|  акорди, навчання, відео  |
|     http://akords.org     |
-----------------------------

 (голосів: 0)
   Інші пісні:
  • Я устал
  • Я устал
  • Сегодняшним днём
  • Десять Лет (Немое Кино)
  • Огоньки
  •  
    Шановний відвідувач, Ви зайшли на сайт як незареєстрований користувач. Ми рекомендуємо Вам реєструватися або зайти на сайт під своїм ім'ям.

    Додавання коментаря

    Ім'я:*
    E-Mail:*
    Коментар:
    Введіть два слова, показані на зображенні: *
     
      

    BLIBL-створити сайт безкоштовно