Зробити стартовою  |  Додати в вибране
 
Пошук по сайту:  
  логін: пароль:  
    Реєстрація на сайті   Нагадати пароль?    

Видавництво Симфонія | Книжкова фабрика

akords.org » С » Сокира Перуна » Поранений птах
Знайти необхідні акорди

Сокира Перуна - Поранений птах  табулатура

Вступ, І - ІІІ куплети:
|------------------------------------------------------------------------
|---------1----------------------3-1------------1------------------------
|------2---2-----------------2------2------2-----2----------0-----1------
|-----2-2------------------2--2----------3--3------3------0-0---2-2—(0)--
|---0--------------------------------------------------------------------
|--0-----------3-2-0-2-0---------------1---------------3-------0---------

І
Am
Опираючись вітру з вогню,
Він йшов по дорозі.
F
Зупинився на мить
G E
Потерти кривавий бік.
І знов підняв зброю,
І знов підняв важкий прапор.
Тяжко від того,
Що просочений кров'ю солдат.

ІІ
Він віддав всього себе,
Як почув голос правди.
Його очі відкрились,
Руки стиснули мужньо приклад.
Свята Україно!
Ти можеш пишатися сином.
І тоді над горами
Зів'ється ся з руною всіх.

Пр.
Am C G
Остання битва воїнів світла.
Караючий меч у вогні.
"Звір" переміг, але бій не скінчен,
Бо дух не можливо перемогти.

IV
Нащадок лицарства
Ти народжений з серцем лева.
Вогнем і мечем
Звільняв від "червоної чуми".
З непохитною волею
Ти йшов до блискучої цілі.
Але після битви,
Сніг був кольору крові.

Приспів.

V
Чорні хмари
Затьмарили світле небо,
І поранений птах
На роки припинив свій політ
Ти залишився тут,
На великій землі України.
Ти закінчиш як воїн –
Поросив свою кров'ю підніжжя Карпат.
Ти залишився тут,
На страждальній землі України
Стискаючи міцно
Знамено з руною слів!

Приспів.

-----------------------------
|  акорди, навчання, відео  |
|     http://akords.org     |
-----------------------------

 (голосів: 1)
   Інші пісні:
  • 29 січня
  • Я син України
  • Лицарський Хрест
  • Не ми
  • Старі фотографії
  •  
    Шановний відвідувач, Ви зайшли на сайт як незареєстрований користувач. Ми рекомендуємо Вам реєструватися або зайти на сайт під своїм ім'ям.

    Додавання коментаря

    Ім'я:*
    E-Mail:*
    Коментар:
    Введіть два слова, показані на зображенні: *
     
      

    BLIBL-створити сайт безкоштовно