Зробити стартовою  |  Додати в вибране
 
Пошук по сайту:  
  логін: пароль:  
    Реєстрація на сайті   Нагадати пароль?    

Видавництво Симфонія | Книжкова фабрика

akords.org » С » Сокира Перуна » Дорога в Вальхаллу
Знайти необхідні акорди

Сокира Перуна - Дорога в Вальхаллу  табулатура

4/4
  C           G             F          C
[-3-----------3-------------1------------------------
[---------3----------------------------3-------------
[----------------------------------------------------
[-0-------------0---0-------1----2-----0----0--------
[-1----3--1---3---3---3-----2--1---1---3-1----1---1--
[-0--0------------0-----0---1--1---1---0--------0----

F Dm G
[---1------------------------------3----------------------
[---------------------------------------------------------
[---------------------0-----------------------------------
[-3-2---2----2----------2--------------0---0--0----0---0--
[---1-----1----1----------3--3---1-3-----3-----------3----
[---1-----1----1---0-----------0----------------0---------



Вступ: C F G C F Dm G

C G
Бачиш цей шлях.
F C
Що веде у Вальхаллу.
F Dm G
У землю, що чекає обраних.
Це білий воїн,
Що мріяв про Вальхаллу
Про місце за столом моїм.

Приспів:
Am C
Але в серцях –
F G
Де вогонь не згасне ніколи
Життя триває. І тих хто впав в бою
Чекають боги
І коли битва скінчиться
F G Am
Зі сходом сонця повстане він.


Підніме свій меч,
І з криком "Вальхалла!".
І мрії стануть реальністю.
Сьогодні вночі
Він прийде до Вальхаллу
Гордий та не переможений

Приспів:
Але в серцях -
Де вогонь не згасне ніколи
Життя триває
Для тих хто впав в бою
Мандри скінчились, відкрилася брама
І він став рівним серед богів...

-----------------------------
|  акорди, навчання, відео  |
|     http://akords.org     |
-----------------------------

 (голосів: 1)
   Інші пісні:
  • 29 січня
  • Козача могила
  • Козача могила
  • ВодаВогонь
  • ВодаВогонь (2 варіант)
  •  
    Шановний відвідувач, Ви зайшли на сайт як незареєстрований користувач. Ми рекомендуємо Вам реєструватися або зайти на сайт під своїм ім'ям.

    Додавання коментаря

    Ім'я:*
    E-Mail:*
    Коментар:
    Введіть два слова, показані на зображенні: *
     
      

    BLIBL-створити сайт безкоштовно