Зробити стартовою  |  Додати в вибране
 
Пошук по сайту:  
  логін: пароль:  
    Реєстрація на сайті   Нагадати пароль?    

Видавництво Симфонія | Книжкова фабрика

akords.org » С » Сокира Перуна » Вітри між мечів
Знайти необхідні акорди

Сокира Перуна - Вітри між мечів  табулатура

Програш:
Am
[-----------0--------- |
[---------1---1------- |
[-------2-------2----- | 4 рази
[-----2-----------2--- |
[--0------------------ |
[--------------------- |

Am F E Am
[-----------0-------1-----------0----------0--------
[---------1-------1-----------0----------1---1------
[-------2-------------------1----------2-------2----
[-----2-------------------2----------2-----------2--
[--0-------------------------------0----------------
[---------------1-------0---------------------------

Am F
Віддаю тобі душу -
Em Am
Перуне почуй мій клич.
В срібних чортогах вирію,
Сяду коло тебе обіч.
Як і всі що до мене
Я згину за кров, за честь.
Стояти в раді твоїй -
В героїв таке право єсть
Хай же знак
Вітрило став,
Останній раз прощай.
Доля кличе. Я іду,
Безсмертя зустрічай!

Програш.

Кличте відьму хай гада,
Прошепче закляття.
Над нами, що впали в бою -
Не власні ні смерть ні життя.

Приспів:
Am F
Ми Перунові сини,
E E7* Am
Вогнем палають серця.
Am F
Нащадки славних королів.
E
Що правлять в небесах.
F G
Вітри між мечів
E E7 Am
Вставай в атаку брат.
F G
Якщо вмремо, що ж
E E7 Am
Нові життя будуй.
F G
У злий вітер та у дощ
E E7 Am
Ріже хвилю в лод"я.
F G
Наша путь, в ночі в пітьму
E
Чарівні зорі нас ведуть.


Сьогодні кров на моєму мечі
Не висохне до зорі.
Багато відправив я до могил -
Тішачись смерті їх!

Приспів.

Мотив приспіва:
F G
Моє тіло покладіть
E E7 Am
На човен і "Вогню!"
Хай мій дух взліта.
Валькірії мчать на стріч.
Я йду до Вальхали
Де чекає вся рідня.
Рветься в небо полум'я,
Жити вічно буду я

Приспів.

-----------------------------
|  акорди, навчання, відео  |
|     http://akords.org     |
-----------------------------

 (голосів: 2)
   Інші пісні:
  • Балада про Крути
  • Полум'я
  • Вальс
  • Без бою
  • Хвилю тримай
  •  
    Шановний відвідувач, Ви зайшли на сайт як незареєстрований користувач. Ми рекомендуємо Вам реєструватися або зайти на сайт під своїм ім'ям.

    Додавання коментаря

    Ім'я:*
    E-Mail:*
    Коментар:
    Введіть два слова, показані на зображенні: *
     
      

    BLIBL-створити сайт безкоштовно