Зробити стартовою  |  Додати в вибране
 
Пошук по сайту:  
  логін: пароль:  
    Реєстрація на сайті   Нагадати пароль?    

Видавництво Симфонія | Книжкова фабрика

akords.org » С » Сокира Перуна » 29 січня
Знайти необхідні акорди

Сокира Перуна - 29 січня  табулатура

4/4
Вступ:
-----------------11------------11--------------------11---------11--
----------13---------------13------------------13------------13-----
------12-----12--------12-------------------12----12------12--------
--10--------------------------------------10------------------------
--------------------------------------------------------------------
--------------------------------------------------------------------

----------------11----------11---------------15--15/13--11--10-11---
---------13---------------13------------13--------------------------
-----12-----12-------12-------------12------------------------------
--------------------------------------------------------------------
--0------------------------------0----------------------------------
--------------------------------------------------------------------

---------------8------8-----------------6-------6-------------------
---------9----------9-------------8----------8----------------------
------8-----8-----8------------7-----7----7-------------------------
---6------------------------5---------------------------------------
--------------------------------------------------------------------
--------------------------------------------------------------------

-----------------0-----------11--13--13--11--10---------------------
----------9---------------9-----------------------------------------
------10-----10-------10--------------------------------------------
---8----------------------------------------------------------------
--------------------------------------------------------------------
--------------------------------------------------------------------

-----------------11----------11------------15------15/13--11-10-11--
----------13--------------13----------------------------------------
------12-----12-------12---------------12------12-------------------
--10-------------------------------10-------------------------------
--------------------------------------------------------------------
--------------------------------------------------------------------

---------------11---------11---------------11---------11------------
---------13-----------13-------------13-----------13----------------
-----12-----12-----12-------------12----12-----12-------------------
--------------------------------------------------------------------
--0---------------------------0-------------------------------------
--------------------------------------------------------------------

---------------8------8---------------6-------6---------------------
---------9---------9------------8----------8------------------------
------8-----8----8-----------7-----7----7---------------------------
---6---------------------5------------------------------------------
--------------------------------------------------------------------
--------------------------------------------------------------------

-----------------10---------11--11--13------------------------------
----------9--------------9------------------------------------------
------10-----10-------10--------------------------------------------
---8----------------------------------------------------------------
--------------------------------------------------------------------
--------------------------------------------------------------------



1 куплет:

------------------11-------------15------------11------------11-----
-----------13-------------13-------------13--------------13---------
-------12-----12-------12----12------12-----12--------12------------
--10----------------------------------------------------------------
--------------------------------------------------------------------
--------------------------------------------------------------------

------------------11-------------15------------11------------11-----
-----------13-------------13-------------13---------------13--------
-------12-----12-------12----12------12-----12--------12------------
--------------------------------------------------------------------
---0----------------------------------------------------------------
--------------------------------------------------------------------

---------------8-----8--------------6-------6-----------------------
---------9---------9-----------8----------8-------------------------
------8-----8----8----------7-----7----7----------------------------
---6---------------------5------------------------------------------
--------------------------------------------------------------------
--------------------------------------------------------------------

------------------10--------11--13--15/13--11--10-------------------
----------9--------------9------------------------------------------
------10-----10-------10--------------------------------------------
---8----------------------------------------------------------------
--------------------------------------------------------------------
--------------------------------------------------------------------

------------------11------------15------15---13--11--10-11----------
-----------13------------13-----------------------------------------
-------12-----12------12-----12------12-----------------------------
--10----------------------------------------------------------------
--------------------------------------------------------------------
--------------------------------------------------------------------

------------------11-------------15------15---13--11--10-11---------
-----------13-------------13----------------------------------------
-------12-----12------12-----12------12-----------------------------
--------------------------------------------------------------------
---0----------------------------------------------------------------
--------------------------------------------------------------------


---------------8------8----------------6-------6--------------------
---------9----------9------------8----------8-----------------------
------8-----8-----8-----------7-----7----7--------------------------
---6----------------------5-----------------------------------------
--------------------------------------------------------------------
--------------------------------------------------------------------

-----------------10----------11----18--20--21--20-------------------
-----------9--------------9-----------------------------------------
------10-----10-------10--------------------------------------------
---8----------------------------------------------------------------
--------------------------------------------------------------------
--------------------------------------------------------------------



Одного туманного ранку,
коли сонце сходить так поволі,
Після битви під Крутами.
Вмирав її молодший син, мужньо, як воїн.
Крізь сльози вона й сьогодні чує його голос

D A
Ма, якщо б прожити знов життя,
Hm
Якщо б мій шлях не мав кінця,
G D
Якщо б вогонь не гас в серцях. То я б!
A
То я би все віддав лише,
Hm G
Щоб обійняти знов тебе.

Остання посмішка полинула
та застигла на його обличчі,
Життя промайнуло в одну мить перед очима.
Немов у дитинстві
Його торкнулися руки матері,
У свої останні хвилини він почув її плач...

Мій син, якщо б вернути час назад,
Якщо б не сльози на очах,
Якщо б здолати свій страх. То я б!
Я б віддала усе лише,
Щоб обійняти знов тебе.

Якщо б вернути час назад,
Якщо б не сльози на очах,
Якщо б здолати свій страх. Та,
Якщо б прожити знов життя,
Якщо б мій шлях не мав кінця,
Якщо б вогонь не гас в серцях. Нехай!
Сто тисяч років болі ще,
Щоб обійняти знов тебе...

-----------------------------
|  акорди, навчання, відео  |
|     http://akords.org     |
-----------------------------

 (голосів: 1)
   Інші пісні:
  • Кольорова
  • Якщо любиш, кохай
  • Апологiя лицарства
  • Мальви
  • Пісня про Чугайстра (2 варіант)
  •  
    Шановний відвідувач, Ви зайшли на сайт як незареєстрований користувач. Ми рекомендуємо Вам реєструватися або зайти на сайт під своїм ім'ям.

    Додавання коментаря

    Ім'я:*
    E-Mail:*
    Коментар:
    Введіть два слова, показані на зображенні: *
     
      

    BLIBL-створити сайт безкоштовно