Зробити стартовою  |  Додати в вибране
 
Пошук по сайту:  
  логін: пароль:  
    Реєстрація на сайті   Нагадати пароль?    

Видавництво Симфонія | Книжкова фабрика

akords.org » С » Смысловые Галлюцинации » DJ-и сходят с ума
Знайти необхідні акорди

Смысловые Галлюцинации - DJ-и сходят с ума  акорди

Intro: Cm Gm

E|----------------------------------------------|
B|---8---8--10-11-10-8------8---8--10-11-10-8---|
G|-8---8---------------8--7---7---------------7-|

E|----------------------------|
B|---8---8--10-11-10-8--------|
G|-8---8---------------8--7---|

2 раза +

E|-------------5^6^5--14----|
B|----7---10----------------|
G|--7---7-------------------|

Gm
Осторожно, только по краю
D#
Не смотри на асфальт там лужи
Cm
В лужах тоже небо из рая
D7
Значит небу это не нужно

Мне не важно что будет завтра
Лишь бы только не было хуже
Лишь бы знать где случится чудо
Лишь бы ты не смотрела в лужи

Gm D#
Ди - джеи сходят с ума не бойся, Падай!
Cm F D7
Достань до самого дна, падай в любовь, Падай!
Ди - джеи сходят с ума не бойся, Падай!
Достань до самого дна, падай в любовь, Падай!

Но земля от меня отказалось
В небо сам никогда не верил
Я хочу чтобы ты не боялась
Чтобы ты не смотрела в небыль

-----------------------------
|  акорди, навчання, відео  |
|     http://akords.org     |
-----------------------------

 (голосів: 0)
   Інші пісні:
  • Падай
  • Падай
  • Я тебя люблю
  • Згаяний Час
  • Згаяний Час (2 варіант)
  •  
    Шановний відвідувач, Ви зайшли на сайт як незареєстрований користувач. Ми рекомендуємо Вам реєструватися або зайти на сайт під своїм ім'ям.

    Додавання коментаря

    Ім'я:*
    E-Mail:*
    Коментар:
    Введіть два слова, показані на зображенні: *
     
      

    BLIBL-створити сайт безкоштовно