Зробити стартовою  |  Додати в вибране
 
Пошук по сайту:  
  логін: пароль:  
    Реєстрація на сайті   Нагадати пароль?    

Видавництво Симфонія | Книжкова фабрика

akords.org » С » Скрябін » Парасолі (2 варіант)
Знайти необхідні акорди

Скрябін - Парасолі (2 варіант)  табулатура

Перебор у вступі і куплеті:

E||-----------------|-----------------|-----------------|-----------------|
H||-----0---0-------|-----0---0-------|-----0---0-------|-----------------|
G||-----------------|-----------------|-----------------|-----2---2-------|
D||---1---1---1---0-|---2---2---2---2-|---2---2---2---2-|---2---2---2---2-|
A||-2-----------2---|-2-----------2---|-------------2---|-0-----------0---|
E||-----------------|-----------------|-3---------------|-----------------|


Hm Em
І навіть якшо буде так погано,
G A
Що схочеш стати мухою і втікнути десь.
Hm Em
Далеко так, щоби ніхто не дістав вже,
G A
Далеко так, аж буде видно кінець.

Приспів:
Hm Em
А ми відкриєм свої парасолі
G A
Так високо, так високо так
Hm Em
Себе накриєм від біди, від горя
G A
І буде добре, буде добре нам
Hm
І буде нам

Програш: Hm Em G A

Навіть тоді як буде тяжко і сумно,
Коли не мають сили сльози вийти наверх,
Ми стиснем зуби і зробим шось мудре
Нема біди, поки ніхто ше не вмер

Приспів

Коли земля пропаде в нас під ногами,
І небо трісне так, як у машині вікно,
Ми парасольки свої просто дістанем
І почекаєм, шоби стало так, як було.

-----------------------------
|  акорди, навчання, відео  |
|     http://akords.org     |
-----------------------------

 (голосів: 1)
   Інші пісні:
  • Парасолі
  • Все буде добре (2 варіант)
  • Все Буде Добре
  • Коли тобі важко
  • Пробач
  •  
    Шановний відвідувач, Ви зайшли на сайт як незареєстрований користувач. Ми рекомендуємо Вам реєструватися або зайти на сайт під своїм ім'ям.

    Додавання коментаря

    Ім'я:*
    E-Mail:*
    Коментар:
    Введіть два слова, показані на зображенні: *
     
      

    BLIBL-створити сайт безкоштовно