Зробити стартовою  |  Додати в вибране
 
Пошук по сайту:  
  логін: пароль:  
    Реєстрація на сайті   Нагадати пароль?    

Видавництво Симфонія | Книжкова фабрика

akords.org » С » Скрябін » Мовчати
Знайти необхідні акорди

Скрябін - Мовчати  акорди

-------------------------0-----
-----1/0-0-0/1---3/0---3-------
----2---2-2---2-2---0-2-2-----2
---2-----------0-----3-------3-
--0----------------------------
-------------------------------

0--------------------------------
-3-1/0---0/1----3/0------0-------
-------2-----2-2---0---2---------
--------------0-------2-2--------
---------------------0-----------
---------------------------------

Am G Dm7
Давай виключим свiтло i будем мовчати
Am G F*
Про то що не можна словами сказати
Не можна писати не можливо зiграти
А тiльки мовчати тихенько мовчати

Давай мовчати про то шо дiвчата
Не вмiють сховати не можуть спати
Давай про мене i про тебе мовчати
Мовчати аж поки не захочем кричати

Мiсяць впав темно в кiмнатi
Як добре шо ти навчилась мовчати
Про то шо нiколи не змогла би збрехати
Про то шо нiколи менi не спитатись

Ми будем з тобою у лiжку лежати
Лежати як снiг водою стiкати
Ми будемо жадно свої сльози ковтати
А з ними слова Яких не сказати

Давай помовчу тобi просто на вушко
Холодною стала чаю кружка
А ми ше маєм про шо помовчати
А ми ше маєм про шо полежати

Як свiтло проб'ється через нашi штори
Ми знову з тобою як снiг заговорим
А поки ше темно є в нашiй кiмнатi
Давай з тобою будем просто... (Solo)

F*
---0-------
---1-------
---2-------
---3-------
---3-------
---0-------

Dm7
---1-------
---1-------
---2-------
---0-------
-----------
-----------

-----------------------------
|  акорди, навчання, відео  |
|     http://akords.org     |
-----------------------------

 (голосів: 13)
   Інші пісні:
  • Мовчати
  • Мовчати (2 варіант)
  • Не вмирай
  • Susy
  • Я так хочу
  •  
    Шановний відвідувач, Ви зайшли на сайт як незареєстрований користувач. Ми рекомендуємо Вам реєструватися або зайти на сайт під своїм ім'ям.

    Додавання коментаря

    Ім'я:*
    E-Mail:*
    Коментар:
    Введіть два слова, показані на зображенні: *
     
      

    BLIBL-створити сайт безкоштовно