Зробити стартовою  |  Додати в вибране
 
Пошук по сайту:  
  логін: пароль:  
    Реєстрація на сайті   Нагадати пароль?    

Видавництво Симфонія | Книжкова фабрика

akords.org » С » Сюткин Валерий » Ночной связной
Знайти необхідні акорди

Сюткин Валерий - Ночной связной  табулатура

RIFF A:
xx1321
Dm7 Am Gm D#7sus2 A7 Dm7 A7
E|---------------------------------------------------|
B|-9r--10--------------------9r--10------------------|
G|--------10--------10-10-----------10-----9-9/9/9---|
D|------------7-7/8---------------------/7-----------|
A|---------------------------------------------------|
E|---------------------------------------------------|

RIFF B1:

Dm7 Am Gm D#7sus2 A7 Dm7 A7
E|----8r------------------------------------------------------|
B|-9r----9br----------11------9r--10----------------------10--|
G|------------------10--/10----------10-----9-9/9/9-----10----|
D|-----------/7-7-8----------------------/7-----------11------|
A|--------------------------------------------------10--------|
E|------------------------------------------------------------|

RIFF B2:

Dm7 Am Gm D#7sus2 A7 Dm7 A7
E|-----8----9b~---10-8-----------------------------------------|
B|-9r---9r------------7h8-6---------9r--10----------10------10-|
G|---10---10-------------------------------10-----9----9---10--|
D|--------------------------7-6-5~-------------/7---------11---|
A|-------------------------------------------------------------|
E|-------------------------------------------------------------|

SOLO:

Dm7 Am Gm
E|------8---------------------------------|
B|--9h10----------------------------------|
G|-------10/12-------10-10----------------|
D|--------------10h12------10-12----------|
A|-------------------------------108----8-|
E|------------------------------------10--|

D#7sus2 A7
E|--------------------------13.---12h13p12-10---------|
B|---------------------13h14-----------------13-10----|
G|----------12br--13h14----------------------------10-|
D|-----12h15----15------------------------------------|
A|11h13-----------------------------------------------|
E|----------------------------------------------------|

Dm7 A7 Dm7
E|----------very quick!----------------------------------------|
B|------------------------------------/13-13-13-13-13-13p12-/15|
G|-14p13p12-12r-10---------------------------------------------|
D|----------------12-12-12-10----------------------------------|
A|----------------------------12-11-10-------------------------|
E|-------------------------------------------------------------|

(Dm7) Am Gm# Gm Gm7
E|--------------10--13-----13-15---13-15----13-15------|
B|-----------------------15------15------15-------15~--|
G|---------12/14-------15------------------------------|
D|---10-12---------------------------------------------|
A|-12--------------------------------------------------|
E|-----------------------------------------------------|

D#7sus2 A7 Dm7 A7
E|-----13--16r---13--13/15-------------------------------------|
B|---15------------15------------------------------------------|
G|-15-----------------------12r-10-12--------------------------|
D|------------------------------------12-15-14h15p14p12-12-10--|
A|-----------------------------------------------------------10|
E|-------------------------------------------------------------|

В куплете соло-гитара играет те же аккорды "шаркающим"
боем (см. фанеру), но на верхних ладах.

RIFF A + B1

Dm B Gm A7
Когда погас последний свет в окне,
Dm7 B Gm A7
Когда слышны шаги часов,
Gm C7 Cm7 D7 Gm
Ищу тебя, ищу на радиоволне
A7 Gm7
Надежд и снов.

RIFF A + B2

Dm7 B Gm A7
Пустой эфир молчит, но до утра
Dm7 B Gm A7
Ловлю я в нём обрывки слов.
Gm C7 Cm7 D7 Gm
Всю ночь, всю ночь идёт печальная игра
A7 Dm D7
Надежд и снов.

Gm A7
Мой ночной связной,
Dm G
на твою волну
Gm A7 Am7 D7
Я настроюсь до утра.
Gm A7
Мой ночной связной,
Dm G
я тебя так жду
Gm A7 B
Между завтра и вчера,
E7/9 A7
уу-уу, е-е.

SOLO

А ночь летит, летит, как облака,
И нет нигде таких часов,
Чтоб взвесить звук, он тих,
Он соткан из клубка надежд и снов.

Мой ночной связной, на твою волну
Я настроюсь до утра.
Мой ночной связной, я тебя так жду
Между завтра и вчера, уу-уу, е-е.

-----------------------------
|  акорди, навчання, відео  |
|     http://akords.org     |
-----------------------------

 (голосів: 0)
   Інші пісні:
  • Ночной ларек
  • Nib
  • Lets Get It Started
  • Electric Funeral Live
  • Behind The Wall Of Sleep
  •  
    Шановний відвідувач, Ви зайшли на сайт як незареєстрований користувач. Ми рекомендуємо Вам реєструватися або зайти на сайт під своїм ім'ям.

    Додавання коментаря

    Ім'я:*
    E-Mail:*
    Коментар:
    Введіть два слова, показані на зображенні: *
     
      

    BLIBL-створити сайт безкоштовно