|  
 
:  
  : :  
      ?    

  |

akords.org » » »

-  

:

CAmFmG

|--------0----------------------0-------------------------1-----------------3-|

|---1------1----1-0------1----1-----1----0-------1----1-----1-0----0----0-----|

|------0-----0--------------2-----2---2----0--------2---2-------------0---0---|

|-----------------------------------------------------------------------------|

|---3-----------3-0------0----------0----0-------3----------3-0---------------|

|------------------------------------------------------------------3----------|





:ѠAmFmG-2.



1:

CAmFmG()

, .

,-.

 ,ߠ.

,-.



:

ѠAmFmG()

,,,

,.

,,,

,.



2:



,.

-,-,.

,.

,ߠ.



:ѠAmFmG-2.



:



,,,

,.

,,,

,.



3:



,ߠ()

 ,.

()

ߠ.

,,.

Ƞ,.

,.

,.

,.

ߠ,-.

,-,

.

Ƞ,.



:



,,

.

,,,.

ߠ.

,,,

,.

,,,

,.

-----------------------------
|  , ,   |
|     http://akords.org     |
-----------------------------

 (: 0)
    :
  • (2 )
  • (2 )
  •  
    , . '.

    ':*
    E-Mail:*
    :
    , : *
     
      

    BLIBL-