|  
 
:  
  : :  
      ?    

  |

akords.org » » »

-  

AmF
E----------0--|---------0---|--------1----|--------1----|
B-------1---1-|------1------|------1--1---|------1------|
G-----2-------|----2--------|-----2-------|-----2-------|
D---2---------|--2----------|---3---------|---3---------|
A-0-----------|-0-----------|-------------|-------------|
E-------------|-------------|-1-----------|-1-----------|
GCD
E----------3--|----------3--|----------0--|----------|-----2----|
B-------0---0-|-------0-----|-------1---1-|-----1----|----------|
G-----0-------|-----0-------|-----0-------|----------|---2----2-|
D---0---------|---0---------|---2---------|---2---2--|-0--------|
A-------------|-------------|-3-----------|-3--------|----------|
E-3-----------|-3-----------|-------------|----------|----------|
Am
,
F
!
G
,
CD
.
,
,
Ƞ,
Ƞ
Ƞ.
Am
,
F

G

CD

,
,


,
,


,
,
Ƞ,
Ƞ.

-----------------------------
|  , ,   |
|     http://akords.org     |
-----------------------------

 (: 0)
    :
  • (2 )
  • (2 )
  •  
    , . '.

    ':*
    E-Mail:*
    :
    , : *
     
      

    BLIBL-