Зробити стартовою  |  Додати в вибране
 
Пошук по сайту:  
  логін: пароль:  
    Реєстрація на сайті   Нагадати пароль?    

Видавництво Симфонія | Книжкова фабрика

akords.org » П » Плач Єремії » Ти втретє цього літа зацвітеш (3 варіант)
Знайти необхідні акорди

Плач Єремії - Ти втретє цього літа зацвітеш (3 варіант)  табулатура

Вступ-соло:
G Dsus2/Gb Em
6=--3------------------2-----------------0---------------------------------
5=-------------------------------------------------------------------------
4=-----------------0------------------0------------------------0-----------
3=-----0---0-----0--------2---2-----2-------0---0------0-----0-------0-----
2=-------0-----0------------3-----3-----------0------0-----1-------1-----1-
1=-----------3------------------0------------------0-----0-------0-----0---

Am C D
6=------------------------------------------------------------------------
5=--0--------------0--3---------------------------------------------------
4=----2----------2-------------------2---0-------------0--0---------------
3=------2------2---------0---0-----0-------2---2-----2----2---------------
2=--------0--1-------------1-----1-----------3-----3------3---------------
1=-----------------------------0-----------------2--------2---------------




G Dsus2/Gb Em
Ти втретє цього літа зацвітеш
Am C D
Такою квіткою тендітною п'янкою.
C D G
Кімната втратить риси супокою,
C D G
Бо речі увійдуть у твій кортеж.

Обернеш пил на срібло і кришталь,
Наділиш тіні здатністю до тліну.
Одна із пелюсток розсуне стіни.
Ти - даль, і подолаєш іншу даль.

G Dsus2/Gb Em
В людей уже нема своїх святинь -
Am C D
Ти можеш стати першою, одначе
G D Em
Знай, біля тебе жоден не заплаче,

C D G
І пам'ятай два дні всього цвісти.

Ти втретє цього літа зацвітеш
Такою квіткою тендітною п'янкою.
Кімната втратить риси супокою,
Бо речі увійдуть у твій кортеж.


Акорд Dsus2/Gb:
6=--2--
5=--0--
4=--0--
3=--2--
2=--3--
1=--0--

-----------------------------
|  акорди, навчання, відео  |
|     http://akords.org     |
-----------------------------

 (голосів: 8)
   Інші пісні:
  • Ти втретє цього літа зацвітеш (2 варіант)
  • Ти втретє цього літа зацвітеш
  • Те, що тобі так треба
  • Tomorrow Acoustic
  • Новые люди
  •  
    Шановний відвідувач, Ви зайшли на сайт як незареєстрований користувач. Ми рекомендуємо Вам реєструватися або зайти на сайт під своїм ім'ям.

    Додавання коментаря

    Ім'я:*
    E-Mail:*
    Коментар:
    Введіть два слова, показані на зображенні: *
     
      

    BLIBL-створити сайт безкоштовно