Зробити стартовою  |  Додати в вибране
 
Пошук по сайту:  
  логін: пароль:  
    Реєстрація на сайті   Нагадати пароль?    

Видавництво Симфонія | Книжкова фабрика

akords.org » П » Плач Єремії » Коли До Губ Твоїх (2 варіант)
Знайти необхідні акорди

Плач Єремії - Коли До Губ Твоїх (2 варіант)  табулатура

  Вступ:


Fm# E' Hm Cm# Fm#

1|--------------2---0-2-4-5-4tr5--|7--0-2-4-0-----2--------4-------------|-2
2|----------2---------------------|9----7-9----|3--3----|5--5------------|-2
3|--------2-----------------------|9--9-----9--|4---2---|6---4---------2-|-2
4|------4-------------------------|9-----------|4-------|6-----------4---|-4
5|----4---------------------------|7-------------------------------4-----|-4
6|--2-----------------------------|7-----------------------------2-------|-2


Акорд Е' можна грати як від 2-ого (для поганих гітар), так і від 7-ого
(для добрих гітар,
зогрема елок) ладів.

------------------------------x2x-----|
------x2x---------------------x2x-----|
------x2x--------x2x------------------| X 2
---------------------x4x--------------|
--------------------------------------|
--X2x-------x2x-----------------------|

А це можна зімітувати ударку - чіпляти приглушені струни.
В такому ритмі і грається перший куплет. Приспів вже перебором

Fm# E
Коли до губ твоїх лишається півподиху,
Hm Cm#
Коли до губ твоїх лишається півкроку –
Fm# E
Зіниці твої виткані із подиву,
Fm# Cm#
В очах у тебе синьо і широко.

Fm# E A
Щось шепчеш зачаровано і тихо ти,
D A E
Той шепіт мою тишу синьо крає,
Fm# E A
І забуваю я, що вмію дихати,
Hm Cm# Fm#
І що ходити вмію, забуваю.


solo:

Соляк грається у пітчі, але на акустиці можна прикраcbти гру,
граючи октавами. Саму тему краще грати на 2-й струні. На електрусі
ліпше грати на 2-ій та 5-ій струні, на веслах типу Чернігова чи
дешевоі трембіти - на 1-ій та 4-ій.

З електрухою вмикати квакушку, але мені більше пасує тремоло.

1|-------|------------------------|---------------------------------------|
2|--5-7~-|---10-12--10--12--14-14-|----14-12-10---10/12---7-7/9-----5-/7--|
3|-------|------------------------|---------------------------------------|
4|--2-4~-|---7--9---7---9---11-11-|----11-9--7----7/9---------------------|
5|--------------------------------------------------------9-9/11----7-/9--|

1|------------------------------------------------------------------------|
2|---------------------10-12-10-12-14-----12-12b-12/10--12-10----10-10----|
3|-----------------7/9--------------------------------------11------------|
4|-4-7/9-9/11-11\9--------------------------------------------------------|
5|------------------------------------------------------------------------|

1|------------------------------|-----------------------------------------|
2|-12-12b-12/10--12-10----10-10-|--12-10-8--------------------------------|
3|---------------------11-------|-----------9-----------------------------|
4|------------------------------|-------------11-10-9---9-7-----7/9-------|
5|------------------------------|---------------------------9--------9----|


Fm# E A
А чорний птах повік твоїх здіймається
D A E
І впевненість мою кудись відмає.
Fm# E A
Неступленим півкроку залишається,
Hm Cm# Fm#
Півподиху у горлі застрягає.

Fm# E A
Зіниці твої виткані із подиву,
D A E
В очах у тебе синьо і широко,
Fm# E A
Але до губ твоїх лишається півподиху,
Hm Cm# Fm#
До губ твоїх лишається півкроку.

Fm# Gm7# A
Але до губ твоїх лишається півподиху,
Hm Cm# F#
До губ твоїх лишається півкроку


тож прошу ваших коментів.

-----------------------------
|  акорди, навчання, відео  |
|     http://akords.org     |
-----------------------------

 (голосів: 10)
   Інші пісні:
  • Коли до губ твоїх
  • Коли до губ твоїх
  • Коли до губ твоїх (4 варіант)
  • Коли до губ твоїх (3 варіант)
  • Мерідіани
  •  
    Шановний відвідувач, Ви зайшли на сайт як незареєстрований користувач. Ми рекомендуємо Вам реєструватися або зайти на сайт під своїм ім'ям.

    Додавання коментаря

    Ім'я:*
    E-Mail:*
    Коментар:
    Введіть два слова, показані на зображенні: *
     
      

    BLIBL-створити сайт безкоштовно