|  
 
:  
  : :  
      ?    

  |

akords.org » » »

-  

E|----------------------------------2-3-2-------------|
B|----3-:-3-:---0-:-0-:---1-:-1-:---3-3-3---3-:-3-:-0-|
G|----2-:-2-:---1-:-1-:---0-:-0-:---2-2-2---2-:-2-:-1-|(1)
D|----3-:-3-:---2-:-2-:---2-:-2-:-0---0-----3-:-3-:-2-|
A|--2---:-2-:-2---:-2-:-0---:-0-:---------2---:-2-:-2-|
E|----------------------------------------------------|

E|----------------------------------2-3-2-|
B|----3-:-3-:---0-:-0-:---1-:-1-:---3-3-3-|
G|----2-:-2-:---1-:-1-:---0-:-0-:---2-2-2-|(2)
D|----3-:-3-:---2-:-2-:---2-:-2-:-0---0---|
A|--2---:-2-:-2---:-2-:-0---:-0-:---------|
E|----------------------------------------|

E|----------------------------------2-3-2-------------|
B|----3-:-3-:---0-:-0-:---1-:-1-:---3-3-3---3-:-3---0-|
G|----2-:-2-:---1-:-1-:---0-:-0-:---2-2-2---2-:-2---1-|(3)
D|----3-:-3-:---2-:-2-:---2-:-2-:-0---0-----3-:-3---2-|
A|--2---:-2-:-2---:-2-:-0---:-0-:---------2---:-2-2-2-|
E|----------------------------------------------------|

E|----------------------------------2-3-2-----------|
B|----3-:-3-:---0-:-0-:---1-:-1-:---3-3-3---3-:-3-1-|
G|----2-:-2-:---1-:-1-:---0-:-0-:---2-2-2---2-:-2-1-|(4)
D|----3-:-3-:---2-:-2-:---2-:-2-:-0---0-----3-:-3-2-|
A|--2---:-2-:-2---:-2-:-0---:-0-:---------2---:-2-2-|
E|--------------------------------------------------|

E|--------------2-3-2---------------------------------2-3-2-----------|
B|----1-:-1-:---3-3-3---3-:-3-:---0-:-0-:---1-:-1-:---3-3-3---3-:-3-1-|
G|----0-:-0-:---2-2-2---2-:-2-:---1-:-1-:---0-:-0-:---2-2-2---2-:-2-1-|(5)
D|----2-:-2-:-0---0-----3-:-3-:---2-:-2-:---2-:-2-:-0---0-----3-:-3-2-|
A|--0---:-0-:---------2---:-2-:-2---:-2-:-0---:-0-:---------2---:-2-2-|
E|--------------------------------------------------------------------|

E|--------------------------------2-3-2-|
B|----3-:-3-:---0-:-0-:-1-1-:-1---3-3-3-|
G|----2-:-2-:---1-:-1-:-0-0-:-0---2-2-2-|(6)
D|----3-:-3-:---2-:-2-:-2-2-:-2-0---0---|
A|--2---:-2-:-2---:-2-:-0-0-:-0---------|
E|--------------------------------------|

E|--------------------------------2-3-2-----------|
B|----3-:-3-:---0-:-0-:-1-1-:-1---3-3-3---3-:-3-1-|
G|----2-:-2-:---1-:-1-:-0-0-:-0---2-2-2---2-:-2-1-|(7)
D|----3-:-3-:---2-:-2-:-2-2-:-2-0---0-----3-:-3-2-|
A|--2---:-2-:-2---:-2-:-0-0-:-0---------2---:-2-2-|
E|------------------------------------------------|

E|--------------2-3-2--------------------------------------2-3-2--------------|
B|----1-:-1-:---3-3-3-3--3-:-3-:-0-:-0-::-0-:-1--1-:-1-:---3-3-3-3--3-:-3-:-1-|
G|----0-:-0-:---2-2-2-2--2-:-2-:-1-:-1-::-1-:-0--0-:-0-:---2-2-2-2--2-:-2-:-1-|(8)
D|----2-:-2-:-0---0---3--3-:-3-:-2-:-2-::-2-:-2--2-:-2-:-0---0---3--3-:-3-:-2-|
A|--0---:-0-:---------2--2-:-2-:-2-:-2-::-2-:-0--0-:-0-:---------2--2-:-2-:-2-|
E|----------------------------------------------------------------------------|

E|--------------2-3-2------------------------------------2-3-2------------|
B|--1-1-:-1-:---3-3-3----3-:-3-:----0-:-0-:-1--1-:-1-:---3-3-3----3-:-3-1-|
G|--0-0-:-0-:---2-2-2----2-:-2-:----1-:-1-:-0--0-:-0-:---2-2-2----2-:-2-1-|(9)
D|--2-2-:-2-:-0---0------3-:-3-:----2-:-2-:-2--2-:-2-:-0---0------3-:-3-2-|
A|--0-0-:-0-:---------2----:-2-:-2----:-2-:-0--0-:-0-:---------2----:-2-2-|
E|------------------------------------------------------------------------|


:-4


(1)

,,ࠠ(2)
…(2)

,(3)


,(2)

,(4)


-------(5)
-------

(4)

,(3)
,

,,񠠠(6)

\
(7)
,/
,(8)
...

(9)

-----------------------------
|  , ,   |
|     http://akords.org     |
-----------------------------

 (: 0)
    :
  •  
    , . '.

    ':*
    E-Mail:*
    :
    , : *
     
      

    BLIBL-