|  
 
:  
  : :  
      ?    

  |

akords.org » » » (2 )

- (2 ) 

"I'mthelyricalgangster"-IniKamoze"HereComesTheHotstepper"

Riff1(G)Riff2(C)
e|-------3-----|-------0---0^0|
b|-------3-----|-------1---1|1|
g|-------0-----|-------0---0-0|
D|-------0-----|-------2---2-2|
A|-------2---0-|-3--3--3---3-3|
E|-3--3--3-----|--------------|

 "G"-,-""2-,--.-,,,.,:),.ʠ.

:

ߠ
ߠ"".



,





Ҹ




ߠ




(׸,?)
-?ߠ.
""?

?

?

?

?


ߠ
.!
--.
ߠ,
ߠ
Ѡ,



(?)
""

?

?

?

?


---
I`mthelyricalgangster

,

"Fila"


Ҹ

-
-
,
""

-,-(""!)
..

,(!)


,

 -
-,!!
-,!!

?

?

?

?


---
I'mthelyricalgangster

-----------------------------
|  , ,   |
|     http://akords.org     |
-----------------------------

 (: 0)
    :
  • (2 )
  •  
    , . '.

    #1 : (30 2010 20:06)
    winked [color=#000099][/color][b][/b] !!!!!!!!!
    !!!!!!
    !!!!!!!!! lol lol

    ':*
    E-Mail:*
    :
    , : *
     
      

    BLIBL-