|  
 
:  
  : :  
      ?    

  |

akords.org » » » (2 )

- (2 ) 

DmDm\\CDm\\BBb
e|-----------1--------1-----|--------------------|--------------1--------0----|-------------------|
b|--------3--------3----3---|--------------------|----------3---------3----3--|-------------------|
g|-----2--------------------|--------------------|-------0--------------------|-------------------|
d|--0-----------------------|--------------------|----------------------------|-------------------|
a|--------------------------|--3----3----3-3-----|--2-------------------------|--1----1----1-0----|
e|--------------------------|--------------------|----------------------------|-------------------|
DmDm\\C
,,
Dm\\BbBb
,,.
DmDm\\C

Dm\\BBb
YOU,,...
,,
,,-
˸,
,,!
:2
,,
,.
,,
,...

,,,.
,
-----!!!!!!!!!!!!!!!!!!!!!!!!!!!!!!!

...
,!

-----------------------------
|  , ,   |
|     http://akords.org     |
-----------------------------

 (: 0)
    :
  • (3 )
  • (3 )
  •  
    , . '.

    ':*
    E-Mail:*
    :
    , : *
     
      

    BLIBL-