|  
 
:  
  : :  
      ?    

  |

akords.org » » »

-  

Riff1(r1)
e|----------1----------------------------------------
b|--------3-------3----------------------------------
g|------2-------2---2--------------------------------
d|-0-------------------------------------------------
a|-----------------------3----3-3-3------------------
E|---------------------------------------------------
Riff2(r2)
e|----------1----------------------------------------
b|--------3-------3----------------------------------
g|------0-----------0--------------------------------
d|---------------------------------------------------
a|-2---------------------1----1-1-0------------------
E|---------------------------------------------------
R1R2
,,...
R1
,

R2
ޠ۠.
R1

R2
,,
,-.
R1R2
,,,,
۠!!!
---------------------------------------------------------
====
R1
-------
R2
---
.....
//,!!!
---------------------------------------------------------
R1
,
R2
....
R1
,
R2
....
R1
.
R2R1
,...
.
R2
-----!!!
====

-----------------------------
|  , ,   |
|     http://akords.org     |
-----------------------------

 (: 0)
    :
  • (2 )
  • (3 )
  •  
    , . '.

    ':*
    E-Mail:*
    :
    , : *
     
      

    BLIBL-