|  
 
:  
  : :  
      ?    

  |

akords.org » » »

-  

AmCFEm
E||-----0---------------------|-----1-------------------||
H||--------1----------1h3p-0--|-------------------------||
G||-----------------0---------|-----------------0-------||
D||--------------2------------|--------3-----2----------||
A||--0--------3---------------|--------------------3p1--||
E||---------------------------|--1--------0-------------||

-----------------------------
|  , ,   |
|     http://akords.org     |
-----------------------------

 (: 0)
    :
 
, . '.

 
  

BLIBL-