|  
 
:  
  : :  
      ?    

  |

akords.org » » »

-  

,().
-,n/.
H6/c[444444],.
.:
D#m7-5Dsus4G#7(H6/c)
1:-------2--2--------2--2--------------------------------------------
2:-------2--2--------2--2----------------------------4--4------------
3:-------2--2--------2--2------------5---------------4--4------------
4:----1-----------0------------------4-------------------------------
5:------------------------------------------------4------------------
6:-----------------------------4-------------4-----------------------
蠠-,-,
D#m7-5Dsus4G#7H6/c
蠠,堠,
Ѡ,,
,......
,,
 ,
,-
....
:
,,,
̠Ҡ,.
,,,
,....
,,--,-.

,,ha-alloya,
,
,
,,...
.
,

,
...
.
// .

-----------------------------
|  , ,   |
|     http://akords.org     |
-----------------------------

 (: 1)
    :
  • ( )
  • -95
  •  
    , . '.

    ':*
    E-Mail:*
    :
    , : *
     
      

    BLIBL-