Зробити стартовою  |  Додати в вибране
 
Пошук по сайту:  
  логін: пароль:  
    Реєстрація на сайті   Нагадати пароль?    

Видавництво Симфонія | Книжкова фабрика

akords.org » П » Пятница » Москва Не Станет Лондоном
Знайти необхідні акорди

Пятница - Москва Не Станет Лондоном  табулатура

Вступление (акустика): 

D|------------------------------| 
A|-0-5---5-5-5---5-8---8-8-8----| 
E|------------------------------| 


Вступление (distortion): 

D|-0-7-7-7-7---10---10---10---10-----9---5--0--| 
A|-0-5-5-5-5---8----8----8----8------7---3--0--| 
E|---------------------------------------------| 


D|-0-7-7-7-7---10---10---10---10-----9---5--5--| 
A|-0-5-5-5-5---8----8----8----8------7---3--3--| 
E|---------------------------------------------| 


D|-0-7-7-7-7---10---10---10---10-----9---5--0--| 
A|-0-5-5-5-5---8----8----8----8------7---3--0--| 
E|---------------------------------------------| 


G|-0--9-9-9-9--7-7-7-7--5-5-5-5--| 
D|-0--7-7-7-7--5-5-5-5--3-3-3-3--| 
A|-------------------------------| 


D|-0--7-7--9-9--10--10---0---7-7--9-9--10--10-| 
A|-0--5-5--7-7--8---8----0---5-5--7-7--8---8--| 
E|--------------------------------------------| 


D|-0--7-7--9-9--10--10--10--10-----9-9--5-5--0-0-| 
A|-0--5-5--7-7--8---8---8---8------7-7--3-3--0-0-| 
E|-----------------------------------------------| 


D|-0--7-7--9-9--10--10---0---7-7--9-9--10--10-| 
A|-0--5-5--7-7--8---8----0---5-5--7-7--8---8--| 
E|--------------------------------------------| 


G|-0--9-9-9-9--7-7-7-7--5-5-5-5--| 
D|-0--7-7-7-7--5-5-5-5--3-3-3-3--| 
A|-------------------------------| 


Рифф куплета: 

"В Москве не понимают панк..." 

D|-7-7-7-7--10-10-10-10-----| 
A|-5-5-5-5--8--8--8--8------| 
E|--------------------------| 


D|-7-7-7-7--10-10-10-10-----| 
A|-5-5-5-5--8--8--8--8------| 
E|--------------------------| 


D|-7-7-7-7--10-10-10-10-----| 
A|-5-5-5-5--8--8--8--8------| 
E|--------------------------| 


D|-7-7-7-7--10-10-10-10-----| 
A|-5-5-5-5--8--8--8--8------| 
E|--------------------------| 


"Преобладает серый цвет..." 

D|-9-9-9-9--12-12-12-12-----| 
A|-7-7-7-7--10-10-10-10-----| 
E|--------------------------| 


D|-9-9-9-9--12-12-12-12-----| 
A|-7-7-7-7--10-10-10-10-----| 
E|--------------------------| 


D|-9-9-9-9--12-12-12-12-----| 
A|-7-7-7-7--10-10-10-10-----| 
E|--------------------------| 


D|-9-9-9-9--12-12-12-12-----| 
A|-7-7-7-7--10-10-10-10-----| 
E|--------------------------| 


Припев: 

D|-0-7-7----10---10----9---5--0--| 
A|-0-5-5----8----8-----7---3--0--| 
E|-------------------------------| 


D|-0-7-7----10---10----9---5--5--| 
A|-0-5-5----8----8-----7---3--3--| 
E|-------------------------------| 


D|-0-7-7----10---10----9---5--0--| 
A|-0-5-5----8----8-----7---3--0--| 
E|-------------------------------| 


G|-0--9-9--7-7--5-5--| 
D|-0--7-7--5-5--3-3--| 
A|-------------------| 


Проигрыш: 

"Жизнь в Москве..." 

D|-0--7-9-10--0--7-9-10-| 
A|-0--5-7-8---0--5-7-8--| 
E|----------------------| 


D|-0--7-9-10--10--9-5-0-| 
A|-0--5-7-8---8---7-3-0-| 
E|----------------------| 


D|-0--7-9-10--0--7-9-10-| 
A|-0--5-7-8---0--5-7-8--| 
E|----------------------| 


G|-0--9-9-9-9--7-7-7-7--5-5-5-5--| 
D|-0--7-7-7-7--5-5-5-5--3-3-3-3--| 
A|-------------------------------|

-----------------------------
|  акорди, навчання, відео  |
|     http://akords.org     |
-----------------------------

 (голосів: 0)
   Інші пісні:
  • Теплоход прогулочный
  • XXI Век
  • Горящая стрела (2 варіант)
  • Электричка
  • Панк-рок песня
  •  
    Шановний відвідувач, Ви зайшли на сайт як незареєстрований користувач. Ми рекомендуємо Вам реєструватися або зайти на сайт під своїм ім'ям.

    Додавання коментаря

    Ім'я:*
    E-Mail:*
    Коментар:
    Введіть два слова, показані на зображенні: *
     
      

    BLIBL-створити сайт безкоштовно