Зробити стартовою  |  Додати в вибране
 
Пошук по сайту:  
  логін: пароль:  
    Реєстрація на сайті   Нагадати пароль?    

Видавництво Симфонія | Книжкова фабрика

akords.org » П » Пятница » Забери
Знайти необхідні акорди

Пятница - Забери  табулатура

Перебор:

|------0---------------0---------|------0-------------------------|
|----0---0---0-------0---0---0---|----0---0---0-------0-----0-----|
|--0-------0---0---0-------0---0-|--0-------0---0---0-----0-----0-|
|--------------------------------|--------------------------------|
|--------------------------------|----------------2-----3-----5---|
|3---------------2---------------|0-------------------------------|


Забери меня к себе,
Я так устал бежать
За тобою вслед.

Открой глаза, закрой лицо руками.
Свет, я хочу увидеть свет
Между нами.

Пустота неистова во мне,
Понять меня,
Не переубедить.

Прыжок мангуста, пусто, пусто.
Жить, я боюсь так дальше жить,
В ультралюстрах.

Отпусти с невыносимою утратой,
У трапа,
Идём домой.

Запусти себя в кратеры моей души.
Дыши, дыши, дыши,
Я сам нажму все клапаны.

-----------------------------
|  акорди, навчання, відео  |
|     http://akords.org     |
-----------------------------

 (голосів: 0)
   Інші пісні:
  • Забери
  • Дыши
  • Забери меня
  • I love You (2 варіант)
  • I love You
  •  
    Шановний відвідувач, Ви зайшли на сайт як незареєстрований користувач. Ми рекомендуємо Вам реєструватися або зайти на сайт під своїм ім'ям.

    Додавання коментаря

    Ім'я:*
    E-Mail:*
    Коментар:
    Введіть два слова, показані на зображенні: *
     
      

    BLIBL-створити сайт безкоштовно