|  
 
:  
  : :  
      ?    

  |

akords.org » » »

-  

:

E|---6---6-|E|---5---5-|
B|---6---6-|B|---5---5-|
G|---6---6-|2.G|---5---5-|2.
D|---------|D|---------|
A|-6-------|A|-5-------|
E|-----6---|E|-----5---|

E|---4---4-|E|---3---3-|
B|---4---4-|B|---3---3-|
G|---4---4-|2.G|---3---3-|2.
D|---------|D|---------|
A|-4-------|A|-3-------|
E|-----4---|E|-----3---|

...(6,5,4,3)

-




ߠ
ߠ

:
...!
-



ߠ,,

?

--------
-,.
--------
Ӡ,.

,,
""-

,


BarryWhite
neverevergonnagiveyouup




Onceagain-


--------
-,.
--------
Ӡ,.

-
-girl,
Yes,itwas.
,
,













--------
-,.
--------
Ӡ,.

-----------------------------
|  , ,   |
|     http://akords.org     |
-----------------------------

 (: 0)
    :
  •  
    , . '.

    ':*
    E-Mail:*
    :
    , : *
     
      

    BLIBL-