Зробити стартовою  |  Додати в вибране
 
Пошук по сайту:  
  логін: пароль:  
    Реєстрація на сайті   Нагадати пароль?    

Видавництво Симфонія | Книжкова фабрика

akords.org » П » Пятница » Белые рубашки (2 варіант)
Знайти необхідні акорди

Пятница - Белые рубашки (2 варіант)  табулатура

Вступление:

         Fm              B             G#            Cm
E|--------------------------------------------------------|
B|----1-----1--1-----3-----3--3-----4-----4--4------4--4--|
G|----1-----1--1-----3-----3--3-----5-----5--5------5--5--|
D|----3-----3--3-----3-----3--3-----6-----6--6------5--5--|
A|-------3-----3--------1-----1--------6-----6---------3--|
E|--1-------------1--------------4---------------3--------|

Вся песня:

         Fm              B             G#              Cm
E|--------------------------------------------------------------|
B|----1-----1--1-----3-----3--3-----4-----4--4------4-----4--4--|
G|----1-----1--1-----3-----3--3-----5-----5--5------5-----5--5--|
D|----3-----3--3-----3-----3--3-----6-----6--6------5-----5--5--|
A|-------3-----3--------1-----1--------6-----6---------3-----3--|
E|--1-------------1--------------4---------------3--------------|


Белые рубашки задом наперед,
Ручки на спине в узелок завязаны,
Вкус овсяной кашки нас уже не прет,
Скоро доктор придет, будем вмазаны...

Ах, как мало нам для счастья надо, \
Ах, как мало нам для счастья...    / 2 раза

Кубики, рубики, дудочки в трубочки,       \
Вертятся колесики, на глазах вопросики... / 2 раза

Ла-ла-ла-ла...

Одни и те же фразы по три раза в день,
Словосочетания на магнитной ленте,
А когда мы спим летает наша тень,
Нам летать не положено по документам...

 


Ах, как мало нам для счастья надо, \
Ах, как мало нам для счастья...    / 2 раза

Бабушкины ласки возят на коляске, \
Белые халатики, это наши братики. / 2 раза

Ла-ла-ла-ла...

От стены до стенки всего один прыжок,
У всех, кто это пробовал лопались животики,
А на завтрак у нас электрошок,
Только идиотики пьют антибиотики.

Ах, как мало нам для счастья надо, \
Ах, как мало нам для счастья...    / 2 раза

Хороводы в парке, мертвому припарки,   \
В клеточку листочки, ротик на замочке. / 2 раза

М-м-м-м...

-----------------------------
|  акорди, навчання, відео  |
|     http://akords.org     |
-----------------------------

 (голосів: 0)
   Інші пісні:
  • Белые рубашки
  • Мало мені
  • Я тебя люблю
  • Вот и лето прошло
  • Так мало тут тебе
  •  
    Шановний відвідувач, Ви зайшли на сайт як незареєстрований користувач. Ми рекомендуємо Вам реєструватися або зайти на сайт під своїм ім'ям.

    Додавання коментаря

    Ім'я:*
    E-Mail:*
    Коментар:
    Введіть два слова, показані на зображенні: *
     
      

    BLIBL-створити сайт безкоштовно