|  
 
:  
  : :  
      ?    

  |

akords.org » » » Big Badda-Boom

- Big Badda-Boom 

E|-x---4-3-2-1-|
B|-x---4-3-2-1-|
G|-x---5-4-3-2-|
D|-3---6-5-4-3-|
A|-3---------3-|
E|-1-----------|

-
,
,,,
-,-
,-

,
Peace!-yeah-,!
-.

Ƞ,-!



-----
-----

--

bigbadda-boom--堠|3
Now,who'sgotthejaminthemothery-yelbow
bigbadda-boom--堠|3
boomshakeshakeshaketheroom|3
tic-tic-tic-tic
///...




ߠ
Ƞ



,

 (what?)
...




ߠ
ߠ



!!!-




-----------------------------
|  , ,   |
|     http://akords.org     |
-----------------------------

 (: 0)
    :
  • Boom Boom
  • Young Blood
  • Boom Boom Pow
  • The Hippy Hippy Shake
  • !
  •  
    , . '.

    ':*
    E-Mail:*
    :
    , : *
     
      

    BLIBL-