Зробити стартовою  |  Додати в вибране
 
Пошук по сайту:  
  логін: пароль:  
    Реєстрація на сайті   Нагадати пароль?    

Видавництво Симфонія | Книжкова фабрика

akords.org » П » Пилот » 7 часов утра
Знайти необхідні акорди

Пилот - 7 часов утра  табулатура

E|----------------------------------------------------------|
B|-------0--0----------0--0---------------------------------|
G|------------2-0-----------2-0------2--2-0--------2--2-0---|
D|--2--2----------2--2----------------------4-0--0--------4-|
A|------------------------------3--3------------------------|
E|----------------------------------------------------------|

E|----------------------------------------------------------|
B|-----0--0--------0-1--0-----------------------------------|
G|----------2-0--------------------2--2-0--------2--2-0-----|
D|2--2----------2---------2-0-------------4-0--0--------4-2-|
A|----------------------------3--3--------------------------|
E|----------------------------------------------------------|

Hm C F#
Мимо окон чужих сам не свой,
Hm C F#
Ветер в шею, по льду иду домой.
Hm C F#
Поскользнусь, упаду, под деревьями оставлю
Hm G
Свой злой смех,
Em F# Hm G
Все давно хотели, чтобы я ушел от всех.
Em F# Hm E
Вот и прилетела с красным пером стрела,
Cm# F#
Ткнула в грудь, не промазала.

Знаю, сила моя всегда со мной,
В кармане ключ от двери золотой.
Напьюсь! Сяду в вагон,
И поедет поезд далеко,
Где кто-то также смотрит
На мир в свое окно,
И не может вспомнить
Насколько память зла!
Все забрала и на ходу спрыгнула.

Собери в мешок все что есть.
Можем на дорожку присесть.
7 часов утра - все спят,
Мы с тобой уходим,
В спину нам свистят
И кидают камни.
Забудут и простят,
Заколотят двери
И вырастет трава,
Через час скошенная.

-----------------------------
|  акорди, навчання, відео  |
|     http://akords.org     |
-----------------------------

 (голосів: 0)
   Інші пісні:
  • О, Любимая
  • Небо и трава
  • Опять сегодня
  • Белая невеста
  • Белая невеста (2 варіант)
  •  
    Шановний відвідувач, Ви зайшли на сайт як незареєстрований користувач. Ми рекомендуємо Вам реєструватися або зайти на сайт під своїм ім'ям.

    Додавання коментаря

    Ім'я:*
    E-Mail:*
    Коментар:
    Введіть два слова, показані на зображенні: *
     
      

    BLIBL-створити сайт безкоштовно