Зробити стартовою  |  Додати в вибране
 
Пошук по сайту:  
  логін: пароль:  
    Реєстрація на сайті   Нагадати пароль?    

Видавництво Симфонія | Книжкова фабрика

akords.org » П » Пилот » 100$
Знайти необхідні акорди

Пилот - 100$  акорди

D|-2-----------------------------------|
G|---2---------------------------------|
B|-----0-1-3-1-3-------------------3-1-|
E|---------------0---------8-7-5-0-----|

D|-2-----------------------------------|
G|---2---------------------------------|
B|-----0-1-3-1-3---3-1-------------3-1-|
E|---------------0-----0---8-7-5-0-----|

Am | F | C | E (1 гитара)

Дождик, гад ползучий, мерзкий, доставучий,
Долбит всю дорогу по мозгам!
Ночь с мурлом селедки держит нож у глотки,
Преграждая путь моим стихам!

Боги и кастрюли, звезды и огрызки,
Ни за что на вас я не сержусь!
Ни хрена не вижу! Ни черта не слышу!
Не за что давно, но я держусь!

Если ты еще помнишь меня,
Если я еще дорог тебе,
Если ты не совсем ожирел,
Если ты сейчас на коне,
Вышли 100$ , брат! Оуо...
Вышли 100$ , гад! Оуо... е-е-е...

Дворник выметает все, что не летает,
Все, о чем не стоит говорить!
А сирены воют, а старушки лают,
Старый город продолжает жить!..

Жить и ждать кого-то больше и вкуснее,
Проще и больнее, чем Иисус...
Ни шиша не помню, ни во что не верю!
Не за что давно, но я держусь!

Припев.

-----------------------------
|  акорди, навчання, відео  |
|     http://akords.org     |
-----------------------------

 (голосів: 0)
   Інші пісні:
  • Ко мне! (2 варіант)
  • Ко мне!
  • Ко мне! (3 варіант)
  • Метла
  • Волки И Вороны
  •  
    Шановний відвідувач, Ви зайшли на сайт як незареєстрований користувач. Ми рекомендуємо Вам реєструватися або зайти на сайт під своїм ім'ям.

    Додавання коментаря

    Ім'я:*
    E-Mail:*
    Коментар:
    Введіть два слова, показані на зображенні: *
     
      

    BLIBL-створити сайт безкоштовно