Зробити стартовою  |  Додати в вибране
 
Пошук по сайту:  
  логін: пароль:  
    Реєстрація на сайті   Нагадати пароль?    

Видавництво Симфонія | Книжкова фабрика

akords.org » П » Петлюра » Скорый Поезд
Знайти необхідні акорди

Петлюра - Скорый Поезд  табулатура

Вступление:(Am),Dm,G,C,Am,Dm,E,Am.



E-3-3-3-1---------3-1-0\'-0-0-0-----------------]

H--------3-1-0-1-3------------3-1-0------0-2\'--]

G-----------------------------------2-1-2------]

D----------------------------------------------]

A----------------------------------------------]

E----------------------------------------------]



E-3-3-3-1---------3-1-0\'-0-0-0-----------------]

H--------3-1-0-1-3------------3-1-0---1-0------]

G----------------------------------2-1---2-----]

D----------------------------------------------]

A----------------------------------------------]

E----------------------------------------------]



Основная часть:Am,Dm,G,C,Am,Dm,E,Am.

Припев играется также,как и вступление.

-----------------------------
|  акорди, навчання, відео  |
|     http://akords.org     |
-----------------------------

 (голосів: 0)
   Інші пісні:
  • Сяду в скорый поезд
  • Романс
  • Рождественская
  • Я должен успеть
  • Скорый поезд
  •  
    Шановний відвідувач, Ви зайшли на сайт як незареєстрований користувач. Ми рекомендуємо Вам реєструватися або зайти на сайт під своїм ім'ям.

    Додавання коментаря

    Ім'я:*
    E-Mail:*
    Коментар:
    Введіть два слова, показані на зображенні: *
     
      

    BLIBL-створити сайт безкоштовно