|  
 
:  
  : :  
      ?    

  |

akords.org » » »

-  

1-------3-1------------------------1-----0----------+
2-------------------0-3-0----------------------3----+
3---2-------2------------------1-----1-----1-----1--+
4--0-------------------------2----------------------+
5----------------2----------------------------------+
6---------------------------------------------------+

6---------------------------------------------------+
1--------3-1------------------------0------5---4----+
2--------------------0-3-0------------0-------------+
3----2-------2------------------1-------------------+
4---0-------------------------2---------------------+
5-----------------2---------------------------------+
6---------------------------------------------------+
AmDm
y,p,
EAm
Ѡypy,
Ѡp,,
Ƞ,pp.
,p,
pypypy,
Ƞppp,
p.
Ƞp,y,
y,
 pp,
py.
pp.
Ƞyppy,
ypp,
p,
,p.
Ƞ,
pypy,,
Ƞpyp,
p.
Ѡppp,
,
Hp,
p,p.
pp.

-----------------------------
|  , ,   |
|     http://akords.org     |
-----------------------------

 (: 0)
    :
  • H
  •  
    , . '.

    ':*
    E-Mail:*
    :
    , : *
     
      

    BLIBL-