Зробити стартовою  |  Додати в вибране
 
Пошук по сайту:  
  логін: пароль:  
    Реєстрація на сайті   Нагадати пароль?    

Видавництво Симфонія | Книжкова фабрика

akords.org » П » Парк Горького » Two Candles (2 варіант)
Знайти необхідні акорди

Парк Горького - Two Candles (2 варіант)  табулатура

(Intro)
N.H.
e|-0---0-2---0---|
B|---0-----0-----|
G|---------------|
D|------------(7)|
A|---------------|
E|---------------|

e|---------0---------|
B|---3---5-----5-----|
G|-----4-----4---5p4-|
D|-------------------|
A|-------------------|
E|-0-----------------|

e|-0-----2-0-----3-7-|
B|-----0-----------5-|
G|---0---------0---5-|
D|-2---------2-----7-|
A|---------3-------7-|
E|-----------------5-|

e|------7------------|
B|----10--10-8-----5-|
G|---9---------7-7---|
D|--9----------------|
A|-------------------|
E|-0-----------------|

e|-0-----------0-----------0-----------0-----------0-----|
B|---3-------3---3-------3---3-------3---3-------3---3---|
G|-----5---5-------5---5-------5---5-------5---5-------5-|
D|-------5-----------5-----------5-----------5-----------|
A|-------------------------------------------------------|
E|-------------------------------------------------------|

e|-------0-----------0-----------0-----------2-----|
B|-----3---3-------3---3-------0---0-------0---0---|
G|---5-------5---5-------5---0-------0---0-------0-|
D|-4-----------4-----------2-----------0-----------|
A|-------------------------------------------------|
E|-------------------------------------------------|

e|-------3-----------5-----------7-|
B|-----0---0-------4---4-------6---|
G|---0-------0---5-------5---7-----|
D|-2-----------4-----------5-------|
A|---------------------------------|
E|---------------------------------|

e|---7-7-5-3-2-2h3p2-0-0-----0-|
B|-----0-------0-------0-4/7-0-|
G|-----0-------0-------2-----0-|
D|---5-5-------2-------------2-|
A|-7---7---------------2-----2-|
E|---------------------------0-|


Natural Harmonic
e|(12)-------------|
B|------(12)-(7)~~-|
G|---(12)----------|
D|---------(7)-----|
A|-----------------|
E|-----------------|

-----------------------------
|  акорди, навчання, відео  |
|     http://akords.org     |
-----------------------------

 (голосів: 0)
   Інші пісні:
  • Зачем топтать мою любовь (2 варіант)
  • Это все (3 варіант)
  • Psychophobia
  • Две свечи
  • Planet Caravan
  •  
    Шановний відвідувач, Ви зайшли на сайт як незареєстрований користувач. Ми рекомендуємо Вам реєструватися або зайти на сайт під своїм ім'ям.

    Додавання коментаря

    Ім'я:*
    E-Mail:*
    Коментар:
    Введіть два слова, показані на зображенні: *
     
      

    BLIBL-створити сайт безкоштовно