Зробити стартовою  |  Додати в вибране
 
Пошук по сайту:  
  логін: пароль:  
    Реєстрація на сайті   Нагадати пароль?    

Видавництво Симфонія | Книжкова фабрика

akords.org » П » Парк Горького » Two Candles
Знайти необхідні акорди

Парк Горького - Two Candles  табулатура

Обозначения : F-флажолет.

Intro

E|----0------0------0-----0-----0-----0--0-----2--------5----7-|
B|--0------0---10-------0-----0-----0--------0-------2------5--|
G|9-----11------------7-----9-----5--------0-------0-------4---|
D|---------------------------------------2---------------------|
A|-----------------------------------------------3--------5----|
E|------------------0------------------------------------------|


Здесь идёт быстрое арпеджио p,i,m,a,m,i
E|5/65---5------------0-----0-----0---------0-----------0-----|
B|------8----1/3-1/2-0--3---3-3---3-3------3---3-------3---5---|
G|-----------2/4-3/4-0---5-5---5-5---5---5-------5---5-------5-|
D|------------------------5-----5------5-----------4-----------|
A|-------------------------------------------------------------|
E|--0----------------------------------------------------------|

E|----0---------0---------2---------3---------5------7--F7-----|
B|--3---3-----0---0-----0---0-----0---0-----4--4----6-----6----|
G|-5------5-0-------0-0-------0-0-------0-5------5-7--------7--|
D|4--------2---------0---------2---------4--------6-----------6|
A|-------------------------------------------------------------|
E|-------------------------------------------------------------|

E|7----7-5/75--------2/32

-----------------------------
|  акорди, навчання, відео  |
|     http://akords.org     |
-----------------------------

 (голосів: 0)
   Інші пісні:
  • Всё идёт своим чередом
  • Фламенко (2 варіант)
  • Фламенко
  • Две свечи
  • Дурочка
  •  
    Шановний відвідувач, Ви зайшли на сайт як незареєстрований користувач. Ми рекомендуємо Вам реєструватися або зайти на сайт під своїм ім'ям.

    Додавання коментаря

    Ім'я:*
    E-Mail:*
    Коментар:
    Введіть два слова, показані на зображенні: *
     
      

    BLIBL-створити сайт безкоштовно