Зробити стартовою  |  Додати в вибране
 
Пошук по сайту:  
  логін: пароль:  
    Реєстрація на сайті   Нагадати пароль?    

Видавництво Симфонія | Книжкова фабрика

akords.org » Н » НеДіля » Вий, мій ранок
Знайти необхідні акорди

НеДіля - Вий, мій ранок  табулатура

Вступ:  Em C D (x4) *

Em C D
- Станеш помирать - залиш мені землю:
Em C D
поруч ляжу, станем слухати, як падають вогні.

Em C D
- Станеш посівать - залиш мені зерна:
C D
їх в долоні заховаю я, та доглядятиму ростки.

Приспів:
Hm G Em A Hm
Вий, мій ра- нок, вимий рани, віднайди мене.
G Em A Hm
Вий, мій постріл, вирви гострі зуби у зими.
G Em A Hm
Вий, мій ранок, вимий рани, віднайди мене.
G Em A Hm
Вий, мій постріл, вирви гострі зуби у зими.

- Підеш догори - залиш сходинки:
їх тримати буду довго, доки триватимуть думки.

- Підеш за крий світу - край залиш:
на тім кордоні стану жити та чекати на кроки.

Приспів.

Програш (на тему Приспіву).

- Станеш хворою - лягай: якщо змерзнеш,
поруч ляжу, заспіваю - ця молитва, може, піджене весну.

- Станеш відлітать - залиш повітря:
підлечу та стану слухати, як падають вогні.

Приспів. (x2)


-----------------------------------

Табулатура (фрагмент)
Підбір: bohdanko (www.pisni.org.ua)

Гітара

Вступ:
E||---------------------------|--------0------------|
H||------------3-----------3--|---------------------|
G||*--------0-----------0-----|-----0---------------|
D||*-----4-----------4--------|---------------------|
A||---------------3-----------|--0------------------|
E||---0-----------------------|---------------------|

-----------------------0--|-----------0---------------||
-----------3--------------|--------------3------------||
--------0-----------0-----|--------2--------2--------*||
-----4-----------4--------|-----4--------------4-----*||
--------------3-----------|--5--------------------5---||
--0-----------------------|---------------------------||

Строфа 1:
--------------------------|--------0------------|
-----------3-----------3--|---------------------|
--------0-----------0-----|-----0---------------|
-----4-----------4--------|---------------------|
--------------3-----------|--0------------------|
--0-----------------------|---------------------|

-----------------------0--|-----------0--------------|
-----------3--------------|--------------3-----------|
--------0-----------0-----|--------2--------2--------|
-----4-----------4--------|-----4--------------4-----|
--------------3-----------|--5--------------------5--|
--0-----------------------|--------------------------|

Строфа 2:
-----------------------0--|--------------------------|
-----------3--------------|-----------0-----0-----0--|
--------0-----------0-----|--------0-----------------|
-----4-----------4--------|-----4--------2-----0-----|
--------------3-----------|--0-----------------------|
--0-----------------------|--------------------------|

--------------------------|-----------2--2---------|
-----------0-----------0--|--------3-----3---------|
--------0-----------0-----|-----2-------------2----|
-----2-----------2--------|--0-----------0---------|
--3-----------4-----------|------------------------|
--------------------------|------------------------|

Приспів:
--2--------3--2-----------|--------------------------|
--------2--------2-----2--|-----3-----------------5--|
-----2--------------2-----|--------4-----------6-----|
--------------------------|-----------4-----5--------|
--4-----------------------|--2-----------------------|
--------------------------|--------------3-----------|

--------------------------|-------------2--------0--|
-----------0--------2-----|--3----------------------|
--------0--------2--------|-----2----------0--------|
-----0-----------------2--|----------2--------0-----|
--------------0-----------|--2----------------------|
--0-----------------------|-------------3-----------|

-------------------0----|------------2-----------|
-----------0------------|--3------------3-----5--|
--------0-----2----2----|--4---------4-----------|
-----5------------------|-------0----------0-----|
--------------0---------|--2---------------------|
--0---------------------|------------3-----------|

--------------------------|-------------2--------0--|
-----------0--------2-----|--3----------------------|
--------0--------2--------|-----2----------0--------|
-----0-----------------2--|----------2--------0-----|
--------------0-----------|--2----------------------|
--0-----------------------|-------------3-----------|

-------------------0----|-------------------||
-----------0------------|-------------------||
--------0-----2----2----|--4----------------||
-----5------------------|--4----------------||
--------------0---------|--2----------------||
--0---------------------|-------------------||

-----------------------------
|  акорди, навчання, відео  |
|     http://akords.org     |
-----------------------------

 (голосів: 0)
   Інші пісні:
  • Вий, мій ранок
  • Там, де ти (2 варіант)
  • Там де ти
  • 8-ий колір
  • 8-колір (3 варіант)
  •  
    Шановний відвідувач, Ви зайшли на сайт як незареєстрований користувач. Ми рекомендуємо Вам реєструватися або зайти на сайт під своїм ім'ям.

    Додавання коментаря

    Ім'я:*
    E-Mail:*
    Коментар:
    Введіть два слова, показані на зображенні: *
     
      

    BLIBL-створити сайт безкоштовно