Зробити стартовою  |  Додати в вибране
 
Пошук по сайту:  
  логін: пароль:  
    Реєстрація на сайті   Нагадати пароль?    

Видавництво Симфонія | Книжкова фабрика

akords.org » Н » Наутилус Помпилиус » Воздух
Знайти необхідні акорди

Наутилус Помпилиус - Воздух  табулатура

Dm
Когда они окружили дом,
И в каждой руке был ствол,
C
Он вышел в окно с красной розой в руке
Dm
И по воздуху плавно пошел.
И хотя его руки было в крови,
C
Они светились, как два крыла,
B
И порох в стволах превратился в песок,
A
Увидев такие дела.

D
Воздух выдержит только тех,
Gm
Только тех, кто верит в себя,
C
Ветер дует туда, куда
F E
Прикажет тот, кто верит в себя.
A
Воздух выдержит только тех,
Dm
Только тех, кто верит в себя,
C
Ветер дует туда, куда
B A
Прикажет тот, кто...

Они стояли и ждали, когда
Он упадет с небес,
о красная роза в его руке
Была похожа на крест.
И что-то включилось само собой
В кармане полковничьих брюк
И чей-то голос так громко сказал,
Что услышали все вокруг.

"Воздух выдержит только тех,
Только тех, кто верит в себя,
Ветер дует туда, куда
Прикажет тот, кто верит в себя".
Воздух выдержит только тех,
Только тех, кто верит в себя,
Ветер дует туда, куда
Прикажет тот, кто...

А полковник думал мысль
И разглядывал пыль на ремне, -
"Если воры ходят по небесам,
Что мы делаем здесь, на земле?
Дети смотрят на нас свысока
И собаки плюют нам вслед.
о если никто мне не задал вопрос,
Откуда я знаю ответ? что..."

Воздух выдержит только тех,
Только тех, кто верит в себя,
Ветер дует туда, куда
Прикажет тот, кто верит в себ
Воздух выдержит только тех,
Только тех, кто верит в себя,
Ветер дует туда, куда
Прикажет тот, кто...

А потом идет такой проигрыш:

E|-------------------------------------------------------------|
B|-------------------------------------------------------------|
G|--3-3-3-3-2-2---0-0-0-0--------------------------------------|
D|------------------------3-3---2-2-2-2-2-2-0---2-2-2-2-0-0----|
A|-------------------------------------------------------------|
E|-------------------------------------------------------------|

E|-------------------------------------------------------------|
B|-------------------------------------------------------------|
G|--3-3-3-3-2-2---0-0-0-0--------------------------------------|
D|------------------------3-3---2-2-2-2-2-2-0---2-2-2-2-0------|
A|-------------------------------------------------------------|
E|-------------------------------------------------------------|

E|-------------------------------------------------------------|
B|-------------------------------------------------1-4-----1-4-|
G|---------------------------0-3-----0-3-2-0-----0-------0-----|
D|---0-2-3---0-2-3-2-0-----0-------0---------3-1-------1-------|
A|-0-------0-----------3-1-------1-----------------------------|
E|-------------------------------------------------------------|

E|-------------------------------------------------------------|
B|-3-1---------------------------------------1-----------------|
G|-----3-----3-1-0-------------------------0---3-2-0-----------|
D|---------1-------3-1------3-1-0--------0-----------3---------|
A|-------3----------------1-------3-1--------------------------|
E|----------------------3--------------------------------------|

E|-------------------------------------------------------------|
B|-------------------------------------------------1-4-----1-4-|
G|---------------------------0-3-----0-3-2-0-----0-------0-----|
D|-----0-3-----0-3-2-0-----0-------0---------3-1-------1-------|
A|---0-------0---------3-1-------1-----------------------------|
E|-1-------1---------------------------------------------------|

E|-------------------------------------------------------------|
B|-3-1-----------------------------------1---------------------|
G|-----3-----3-1-0---------------------0---3-2-0---------------|
D|---------1-------3-1-----3-1-0-----0-----------3------0-3----|
A|-------3---------------1-------3-1------------------0--------|
E|---------------------3----------------------------1----------|

-----------------------------
|  акорди, навчання, відео  |
|     http://akords.org     |
-----------------------------

 (голосів: 0)
   Інші пісні:
  • Север (Безжизненный край)
  • Ветер дует
  • Ветер все сильней
  • Крылатые качели
  • Вертикаль
  •  
    Шановний відвідувач, Ви зайшли на сайт як незареєстрований користувач. Ми рекомендуємо Вам реєструватися або зайти на сайт під своїм ім'ям.

    Додавання коментаря

    Ім'я:*
    E-Mail:*
    Коментар:
    Введіть два слова, показані на зображенні: *
     
      

    BLIBL-створити сайт безкоштовно