Зробити стартовою  |  Додати в вибране
 
Пошук по сайту:  
  логін: пароль:  
    Реєстрація на сайті   Нагадати пароль?    

Видавництво Симфонія | Книжкова фабрика

akords.org » Н » Наутилус Помпилиус » Бриллиантовые дороги
Знайти необхідні акорди

Наутилус Помпилиус - Бриллиантовые дороги  акорди

Соло:
E|-7-7-7-------5-5-5-------5-5-5-------3-3-3-------| *2
B|-------8-8-8-------7-7-7-------5-5-5-------5-5-5-|

E|-7--7--10-10-8-7-----8-8-7------|
B|-----------------10--------10-8-|

E|---7---7---5---5----8----8----11----11-|
B|-8---8---7---7---10---10---10----10----|

E|-7--7--10-10-8-7-----8-8-7------|
B|-----------------10--------10-8-|

E|---3---3---7---7---2---2---5---5---8---|
B|-5---5---8---8---4---4---4---4---7---7-|

Em D A
посмотри как блестят бриллиантовые дороги
Em Hm A Em
послушай как хрустят бриллиантовые дороги
D A Em G
смотри какие следы оставляют на них боги
F#m Em D A
чтоб идти вслед за ними нужны золотые ноги
Em Hm A Em
чтоб вцепиться в стекло нужны алмазные когти

D A
горят над нами горят
Em G
помрачая рассудок
F#m Em
бриллиантовые дороги
G D A
в темное время суток

посмотри как узки бриллиантовые дороги
нас зажали в тиски бриллиантовые дороги
чтобы видеть их свет мы пили горькие травы
если в пропасть не пасть все равно умирать от отравы
на алмазных мостах через черные канавы

парят над нами парят
помрачая рассудок
бриллиантовые дороги
в темное время суток

-----------------------------
|  акорди, навчання, відео  |
|     http://akords.org     |
-----------------------------

 (голосів: 0)
   Інші пісні:
  • Завтра меня здесь не будет
  • Завтра меня здесь не будет (2 варіант)
  • Не Трать Время
  • Не сбивай меня с дороги
  • Мы
  •  
    Шановний відвідувач, Ви зайшли на сайт як незареєстрований користувач. Ми рекомендуємо Вам реєструватися або зайти на сайт під своїм ім'ям.

    Додавання коментаря

    Ім'я:*
    E-Mail:*
    Коментар:
    Введіть два слова, показані на зображенні: *
     
      

    BLIBL-створити сайт безкоштовно