Зробити стартовою  |  Додати в вибране
 
Пошук по сайту:  
  логін: пароль:  
    Реєстрація на сайті   Нагадати пароль?    

Видавництво Симфонія | Книжкова фабрика

akords.org » М » Віктор Морозов » Аліна
Знайти необхідні акорди

Віктор Морозов - Аліна  табулатура

Asus4  Dsus2 Dmаdd9  Dsus2

Куплети граються таким перебором:
E||-------0------------0-------------0-------------0-----||
B||----------3------------3-------------3-------------3--||
G||-----2------------ 2------------2------------2--------||
D||--0------------2------------3------------2------------||
A||------------------------------------------------------||
E||------------------------------------------------------||

Вже надходить ніч, заснуло місто,
Ти стоїш одна біля вікна
І тремтять на шибах краплі чисті,
Ти на себе дивишся з-за шкла,

Приспів:
Dm Dm/F A7sus4 A7
Аліна-а...

Тут, де немає веселої музики,
Тут, де палає торішня трава
І дзеркала проростають пелюстками,
І кожна айстра жива.

Ти є лялька, ти є грішне свято,
Вічний сон під тисячами вій,
Сон урветься, шиба розіб'ється,
Тільки голос кликатиме мій:
Аліна-а-а-а, Аліна-а,
Аліна-а-а-а, Аліна-а,
Аліна-а-а-а, Аліна-а,
Аліна-а-а-а, Аліна-а.

Тут, де немає веселої музики,
Тут, де палає торішня трава,
І дзеркала проростають пелюстками,
І кожна айстра жива.
Є на цьому світі дивні люди,
Шлях їх тоне в опівнічній млі,
Може, завтра нас уже не буде
На чужій ненависній землі?

Аліна-а-а-а, Аліна-а,
Аліна-а-а-а, Аліна-а,
Аліна-а-а-а, Аліна-а,
Аліна-а-а-а, Аліна-а.

-----------------------------
|  акорди, навчання, відео  |
|     http://akords.org     |
-----------------------------

 (голосів: 0)
   Інші пісні:
  • Дзеркала
  • Золота трава
  • Правда
  • Палає степ
  • Місто
  •  
    Шановний відвідувач, Ви зайшли на сайт як незареєстрований користувач. Ми рекомендуємо Вам реєструватися або зайти на сайт під своїм ім'ям.

    Додавання коментаря

    Ім'я:*
    E-Mail:*
    Коментар:
    Введіть два слова, показані на зображенні: *
     
      

    BLIBL-створити сайт безкоштовно